The Magic Bullet Theory

Texas Is The Reason

Tom: D
Tuning: Drop D 

Intro: 
e|---------------------------------| 
B|---------------------------------| 
G|---------------------------------| 
D|---------------------------------| 
A|-4-4-4-5-5-5-4-4-4-4-4-4-5-5-4-4-| 
D|-5-5-5-5-5-5-5-5-5-0-0-0-0-0-0-0-| 
   pm. . . . . . . . . . . . . . . 

Verse: 
e|---------------------------------| 
B|---------------------------------| 
G|-6-6-6-7-7-7-6-6-6-6-6-6-7-7-6-6-| 
D|-7-7-7-7-7-7-7-7-7-7-7-7-7-7-7-7-| 
A|-5-5-5-5-5-5-5-5-5-0-0-0-0-0-0-0-| 
D|-5-5-5-5-5-5-5-5-5-0-0-0-0-0-0-0-| 


Chorus: 
e|---------------------------------------------------| 
B|---------------------------------------------------| 
G|-1010101010101010-4/5-5-5-5/7-7-7-7/9-9-9-9/101010-| 
D|-8-8-8-8-8-8-8-8--x-x-x-x-x-x-x-x-x-x-x-x-x-x-x-x--| 
A|-8-8-8-8-8-8-8-8--2/3-3-3-3/5-5-5-5/7-7-7-7/8-8-8--| 
D|-8-8-8-8-8-8-8-8-----------------------------------| 

e|--------------------------------------------------| 
B|--------------------------------------------------| 
G|-1010101010101010-7-7-7-7-7-7-7-7-7-7-7-7-7-7-7-7-| 
D|-8-8-8-8-8-8-8-8--7-7-7-7-7-7-7-7-7-7-7-7-7-7-7-7-| 
A|-8-8-8-8-8-8-8-8--5-5-5-5-5-5-5-5-5-5-5-5-5-5-5-5-| 
D|-8-8-8-8-8-8-8-8--0-0-0-0-0-0-0-0-0-0-0-0-0-0-0-0-| 



Bridge: 
e|---------------------------------------------------------------| 
B|---------------------------------------------------------------| 
G|-7-7-7-7-7-7-7-7-7-7-7-7-7-7-7---------------------------------| 
D|-7-7-7-7-7-7-7-7-7-7-7-7-7-7-7-4-4-4-0-0-0-9-9-9-0-0-0-4-4-0-0-| 
A|-5-5-5-5-5-5-5-5-5-5-5-5-5-5-5-4-4-4-0-0-0-9-9-9-0-0-0-4-4-0-0-| 
D|-0-0-0-0-0-0-0-0-0-0-0-0-0-0-0-4-4-4-0-0-0-9-9-9-0-0-0-4-4-0-0-| 
 |                                                               | 
e|---------------------------------------------------------------| 
B|-11hbr10-10-10--11hbr10-10-10----------------------------------| 
G|---------------------------------------------------------------| 
D|---------------------------------------------------------------| 
A|---------------------------------------------------------------| 
D|---------------------------------------------------------------| 
  *prebend the 10 up a half step and then realease* 

e|--------------------------| 
B|--------------------------| 
G|-7-7-7-7-7-7-7-7-~~~~-----| 
D|-7-7-7-7-7-7-7-7-~~~~-----| 
A|-5-5-5-5-5-5-5-5-~~~~-----| 
D|-0-0-0-0-0-0-0-0-~~~~-----| 

Then back to the verse for the outro 

Compartilhe esta música: novo

QR Code
Copiar