Nickel Wound

Texas Is The Reason

Tom: D
----------------------------------------------------------------------------- 
                            NICKEL WOUND - Texas is the Reason 
----------------------------------------------------------------------------- 
Tuning: Drop D 

Intro/1st Verse: 
e|--------------------------------|--------------------------------| 
B|-8-----6-----5--5h6---5---5-----|-8-----6-----5--5h6---5---5-----| 
G|-5-5-5---5-5--5-----5---5---5-5-|-5-5-5---5-5--5-----5---5---5-5-| 
D|----------------------------A---|----------------------------A---| 
A|--------------------------------|--------------------------------| 
D|--------------------------------|--------------------------------| 
 |  *really accentuate that one five                               | 
 |                                                                 | 
e|--------------------------------|--------------------------------| 
B|-8------------------------------|-8-------------10------8--8h10--| 
G|-------------5--------------5---|--------------------------------| 
D|--------------------------------|--------------------------------| 
A|--------------------------------|--------------------------------| 
D|--------------------------------|--------------------------------| 

e|--------------------------------|--------------------------------| 
B|-8-----6-----5--5h6---5---5-----|-8-----6-----5--5h6---5---5-----| 
G|-5-5-5---5-5--5-----5---5---5-5-|-5-5-5---5-5--5-----5---5---5-5-| 
D|----------------------------A---|----------------------------A---| 
A|--------------------------------|--------------------------------| 
D|--------------------------------|--------------------------------| 
 |                                                                 | 
 |                                                                 | 
e|--------------------------------|--------------------------------| 
B|-6--------------------------6h8-|-6------------------------------| 
G|-------------5------------------|-------------5--------------5---| 
D|--------------------------------|--------------------------------| 
A|--------------------------------|--------------------------------| 
D|--------------------------------|--------------------------------| 

Chorus: 
e|------------------------------------------------------------------| 
B|------------------------------------------------------------------| 
G|-----------------5555555555555555---------------------------------| 
D|-7777777777777777555555555555555533333333333333335555555555555555-| 
A|-7777777777777777333333333333333333333333333333335555555555555555-| 
D|-7777777777777777----------------33333333333333335555555555555555-| 
 |                                                                  | 
e|------------------------------------------------------------------| 
B|------------------------------------------------------------------| 
G|-12-10-9-10-5----5----5---7--5-5-10101010121212121414141414141414-| 
D|-x--x--x-x--x----x----x---x--x-x-x-x-x-x-x-x-x-x-x-x-x-x-x-x-x-x--| 
A|-10-8--7-8--3----3----3---5--3-3-8-8-8-8-101010101212121212121212-| 
D|------------------------------------------------------------------| 

2nd Verse: x8 
e|----------------------------------| 
B|----------------------------------| 
G|----------------------------------| 
D|-5-5-5----------------------------| 
A|-3-3-3-7-7-7-7-7-5-5-5-3-3-3-3-3--| 
D|-------7-7-7-7-7-5-5-5-3-3-3-3-3--| 
   pm. . . . . . . . . . . . . . . 

Pre-Chorus 
e|-------------------------------------------------------------------| 
B|-------------------------------------------------------------------| 
G|------------------------------------------------55555555555555555--| 
D|-3333333333333333333333333333333777777777777777755555555555555555--| 
A|-3333333333333333333333333333333777777777777777733333333333333333--| 
D|-33333333333333333333333333333337777777777777777-------------------| 
 |                                                                   | 
e|-------------------------------------------------------------------| 
B|-------------------------------------------------------------------| 
G|-101010101010101012-10-9-10-9-9-101010101010101012-10-9-10-9-5-----| 
D|-x-x-x-x-x-x-x-x-x--x--x-x--x-x-x-x-x-x-x-x-x-x-x--x--x-x--x-x-----| 
A|-8-8-8-8-8-8-8-8-10-8--7-8--7-7-8-8-8-8-8-8-8-8-10-8--7-8--7-3-----| 
D|-------------------------------------------------------------------| 

e|----------------------------------| 
B|----------------------------------| 
G|----------------------------------| 
D|-88888888888888888888888888888888-| 
A|-88888888888888888888888888888888-| 
D|-88888888888888888888888888888888-| 
 |                                  | 
e|----------------------------------| 
B|----------------------------------| 
G|-10101010101010101414141414141414-| 
D|-x-x-x-x-x-x-x-x-x-x-x-x-x-x-x-x--| 
A|-8-8-8-8-8-8-8-8-1212121212121212-| 
D|----------------------------------| 

Goes through the verse, preChorus, Chorus cycle again 

Outro: 
e|------------------------------------------------------------------------| 
B|------------------------------------------------------------------------| 
G|-7h9-7h9-7----------7h9-7h9-7-------7h9-7h9-7------7s5p4--0-------------| 
D|------------------------------------------------------------------------| 
A|------------------------------------------------------------------------| 
D|------------------------------------------------------------------------| 
 |                                                                        | 
e|---------------------------------------------------------------5----5---| 
B|--------------3----3------------3----3-----------3---3---------3----3---| 
G|--------------0----0------------0----0-----------0---0-------0---0----0-| 
D|------------0----0----0-------0----0----0------0---0----0----0---0----0-| 
A|---------3-----------------3----------------3---------------------------| 
D|----------------------------------------------------------5-------------| 
           *acoustic guitar 

Compartilhe esta música: novo

QR Code
Copiar