Weird Circles

Tera Melos

Tom: E
Intro 

-4-4-4-4-| 
-5-5-5-5-| 
---------| 
---------| 
---------| 
---------| for 12 bars I think? 

Verse 

---------------------| 
---------------------| 
---------------------| 
-6-----9----9s11-----| 
---4p0--7p0-----9p0--| 
---------------------| repeat and place as you see fit 

Chorus 

I don't know the specific voicings but the chords, each played for one bar, are: 

E, C#m, F#m, E, A, C#m 

then Verse 

then Chorus 

then Bridge which is first comprised of the verse loop with sounds overtop and  
then goes into this part: 

-----------------------------------------------------------------------------| 
-9---7-9-10----10----12---12-----9----7-9--10---10---12-----12----8---8------| 
-----------------------------------------------------------------------------| 
---9--------11----11----13---13-----9---------11---11----13-----13--8---8----| 
-----------------------------------------------------------------------------| 
-----------------------------------------------------------------------------| x2 

-----7--------5-----------12-------------12------| 
-9--------7--------14-------------14-------------| 
---9---9----7---7-----14-----14------14-----14---| 
-------------------------------------------------| 
-------------------------------------------------| 
-------------------------------------------------| (4x)

 

Compartilhe esta música: novo

QR Code
Copiar