Zelda La Tormenta

Temas Variados

Este es el famoso juego de legenda de Zelda. 

una cancion del juego se llama la tormenta intentaremos 
tocarla en la guitarra: 

Primero hacen un Re, tocando las 3 cuerdas juntas 2 veses 
Despues pasan en la posicion Re, al 4 traste dando 1 ves alas 3C 
Despues pasan al 5 traste y le dan 2 veses a las 3C 
y final mente pasan al 4 traste dando 1 ves. 

DESPUES: 

1)---2--2--2/3-4-6-5-4-0-----------------2--2-2/3-4-6-5-4-0* 
2)--2--2------5---------4------4-3-2-1--2--2-----5---------* 
3)-2--2------------------5-6-7---------2--2----------------* 
4)---------------------------------------------------------* 
5)---------------------------------------------------------* 
6)---------------------------------------------------------* 

1)------------* 
2)-4----------* 
3)--5-6-7--6-3* 
4)------------* 
5)------------* 
6)------------* 

asta la proxima... 

Compartilhe esta música: novo

QR Code
Copiar