Vinheta Fórmula 1

Temas Variados

vinheta Fórmula 1 

  Tablatura para Guitarra 
E|--------------------------| 
B|--------------------------| 
G|-14--11-14-12-11---9DB5---| 
D|--------------------------| 
A|--------------------------| 
E|--------------------------| 


E|--------------------------| 
B|--------------------------| 
G|-12-14-17--14-15----------| 
D|--------------------------| 
A|--------------------------| 
E|--------------------------| 

E|--------------------------|-------------------| 
B|--------------------------|-------------------| 
G|-12-15--13-12----10DB8----|-13-12----10DB8----| 
D|--------------------------|-------------------| 
A|--------------------------|-------------------| 
E|--------------------------|-------------------| 

DB  DIVE BOMB (baixar a alavanca de voutar) 


  Tablatura de Violão 
E|--------------------------| 
B|-10---7-10-8-17----5/2\5--| 
G|--------------------------| 
D|--------------------------| 
A|--------------------------| 
E|--------------------------| 


E|--------------------------| 
B|-8-10-13---10-11----------| 
G|--------------------------| 
D|--------------------------| 
A|--------------------------| 
E|--------------------------| 

E|--------------------------|-------------------| 
B|--------------------------|-------------------| 
G|-8-11---9-8----6/4\6------|-9-8----6/4\6------| 
D|--------------------------|-------------------| 
A|--------------------------|-------------------| 
E|--------------------------|-------------------| 

/ \ SLIDE (correr os dedos) 

Compartilhe esta música: novo

QR Code
Copiar