Blues I

Temas Variados

1|-------2x--------|--------2x------|-------2x--------|------1x-------|--------1x-------| 
2|-----------------|----------------|-----------------|---------------|-----------------| 
3|-----------------|-----4---5---4--|-----------------|-----6---7---6-|-----4---5---4---| 
4|-----4---5---4---|---7---7---7--7-|-----4---5---4---|---9---9---6---|---7---7---7---7-| 
5|---7---7---7---7-|-5--------------|---7---7---7---7-|-7-------------|-5---------------| 
6|-5---------------|----------------|-5---------------|---------------|-----------------| 


O solo de cima é acompanhado com esta base: 


1|---------------------------------|---------------------------------| 
2|---------------------------------|---------------------------------| 
3|---------------------------------|---------------------------------| 
4|---------------------------------|--7-7-9-7-9-7-7-9-7-7-9-7-9-7-9--| 
5|--7-7-9-7-9-7-7-9-7-7-9-7-9-7-9--|--5-5-5-5-5-5-5-5-5-5-5-5-5-5-5--| 
6|--5-5-5-5-5-5-5-5-5-5-5-5-5-5-5--|---------------------------------| 


1|---------------------------------|--------------------------| 
2|---------------------------------|--------------------------| 
3|---------------------------------|--------------------------| 
4|---------------------------------|--9-9-11-9-11--7-7-9-7-9--| 
5|--7-7-9-7-9-7-7-9-7-7-9-7-9-7-9--|--7-7-7--7-7---5-5-5-5-5--| 
6|--5-5-5-5-5-5-5-5-5-5-5-5-5-5-5--|--------------------------| 


E termina assim: 


1|---|----2x-----|-----2x----|-----2x----|----2x-----|-------------------|-----------|-----| 
2|---|-----------|-----------|-----------|-----------|-------------------|-----------|-----| 
3|---|-----------|-----------|-----------|-----------|-------------------|-----------|-----| 
4|---|-----------|---4-5-6-7-|-----------|-----------|---7-5-5-4-4-3-3---|-----------|-----| 
5|---|---4-5-6-7-|-5---------|---4-5-6-7-|-----------|-----------------7-|---4-5-6-7-|-8-7-| 
6|-5-|-5---------|-----------|-5---------|-0-4-5-6-7-|-5-----------------|-7---------|-6-5-| 

Compartilhe esta música: novo

QR Code
Copiar