Tom: C
Featuring Tiffany Chung (TC) 

Guitar 1: Standard Tuning (Capo on 8th) 

Listen to the song on when to puck/strum the chords 

Intro: 

     C                   Am7          G 
e|--------------3-----x------------x-----------3------------------| 
B|--0h1------1-----1--x----1-------x----3------3------------------| 
G|--------0-----------x----0----0--x-------0---0------------------|   
D|--------------------x----2-------x-----------0------------------|  4x 
A|--3-----------------x----0-------x-----------2------------------| 
E|--------------------x------------x----3------3------------------| 

Verse 1: 

Am7 C F C Am7 C F G 

I must be lucky or this must be my day 
It's the warmth of holding you till I'm infused by your scent 
I think it's something I can feel for myself` 
Could it get any better than this, I'm holding my breath 
For a kiss 

Break: Guitar 1 

   C                   Am7          G 
e|--------------3-----x------------x-----------3------------------| 
B|--0h1------1-----1--x----1-------x----3------3------------------| 
G|--------0-----------x----0----0--x-------0---0------------------|   
D|--------------------x----2-------x-----------0------------------|  
A|--3-----------------x----0-------x-----------2------------------| 
E|--------------------x------------x----3------3------------------| 

Verse 2:  

Am7 C F C Am7 C F G 

Unyielding motion that's wrapped in a smile 
But you seem so steady as I am burning inside 
I feel the warmth as I have fallen too deep 
Now I know that you know me though I've been told to believe 
It's just a kiss 

   C                   Am7          G 
e|--------------3-----x------------x-----------3------------------| 
B|--0h1------1-----1--x----1-------x----3------3------------------| 
G|--------0-----------x----0----0--x-------0---0------------------|   
D|--------------------x----2-------x-----------0------------------|  
A|--3-----------------x----0-------x-----------2------------------| 
E|--------------------x------------x----3------3------------------| 


For a kiss 

   C                   Am7          G 
e|--------------3-----x------------x-----------3------------------| 
B|--0h1------1-----1--x----1-------x----3------3------------------| 
G|--------0-----------x----0----0--x-------0---0------------------|   
D|--------------------x----2-------x-----------0------------------|  
A|--3-----------------x----0-------x-----------2------------------| 
E|--------------------x------------x----3------3------------------| 

Chorus: 

F Am7 G F Am7 G F Am7 G F Am7 G 

Close your eyes and we can float away 
All alone through this crowded place 
Maybe you and I can find some time 
Till forever or more 
So baby move your lips 
Come close I need this kiss 
No time to fake I just can't explain 

Noooooooo no ohhhh noo ohhhh (Intro chords:) 

   C                   Am7          G 
e|--------------3-----x------------x-----------3------------------| 
B|--0h1------1-----1--x----1-------x----3------3------------------| 
G|--------0-----------x----0----0--x-------0---0------------------|   
D|--------------------x----2-------x-----------0------------------|  
A|--3-----------------x----0-------x-----------2------------------| 
E|--------------------x------------x----3------3------------------| 

Noooooooo no ohhhh noo ohhhh (Intro chords:) 

   C                   Am7          G 
e|--------------3-----x------------x-----------3------------------| 
B|--0h1------1-----1--x----1-------x----3------3------------------| 
G|--------0-----------x----0----0--x-------0---0------------------|   
D|--------------------x----2-------x-----------0------------------|  
A|--3-----------------x----0-------x-----------2------------------| 
E|--------------------x------------x----3------3------------------| 

C F Am7 G (Throughout the rest) 
The sweetest touch that I just can't get enough  
Could it get any better than this I'm holding my breath 

For a kiss 

Close your eyes and we can float away 

For a kiss 

Close your eyes and we can float away 

For a kiss 

Close your eyes and we can float away 

For a kiss 

(End on C) 


Standard Tuning (Capo on 8th) 

*Play w/ guitar 1* 

Guitar 2: Around 0:12 & around 0:42 


e|-0-----3---3h5---3---------------------------------------| 
B|---------------------3h5--3/1--3---3/5--3----------------| 
G|---------------------------------------------------------| 
D|---------------------------------------------------------| 
A|---------------------------------------------------------| 
E|---------------------------------------------------------| 


e|-0-----3---3h5---3---------------------------------------| 
B|---------------------3h5--3/1--3---3/5--3--1---0---------| 
G|---------------------------------------------------------| 
D|---------------------------------------------------------| 
A|---------------------------------------------------------| 
E|---------------------------------------------------------| 

Another part of Guitar 2: Starts @ 0:55 ---> 1:44 

e|-3---3---3---3---3---------------------------------------| 
B|---1---1---1---1---1-------------------------------------| 
G|---------------------------------------------------------| 
D|---------------------------------------------------------| 
A|---------------------------------------------------------| 
E|---------------------------------------------------------| 

1:44 ---> 2:06 

e|---3---3---3---------------------------------------------| 
B|-1---1---1---1---3--3h5/7-5-3--1--0----------------------| 
G|---------------------------------------------------------| 
D|---------------------------------------------------------| 
A|---------------------------------------------------------| 
E|---------------------------------------------------------| 

2:19 --> end 

e|---3---3---3---------------------------------------------| 
B|-1---1---1-----------------------------------------------| 
G|---------------------------------------------------------| 
D|---------------------------------------------------------| 
A|---------------------------------------------------------| 
E|---------------------------------------------------------| 

Compartilhe esta música: novo

QR Code
Copiar