Crazy

Talisman

Intro 
Guitar Sound with Delay on the 1/8 Notes, mix ca.35%, 3-4 repeats, light and brilliant distortion 

e|------------------------------|--0--2--|------------------------------|--0---2--|--x-x--14\----| 
B|----------2---------2---------|--5\-0--|----------2---------2---------|--5---0--|--x-x--12\----| 
G|----2p1-------2p1-------2p1---|--6\-4--|----2p1-------2p1-------2p1---|--6---4--|--------------| 
D|--4-----4---4-----4---4-----4-|--7\-4--|--4-----4---4-----4---4-----4-|--7---4--|--------------| 
A|------------------------------|--------|------------------------------|---------|--------------| 
E|------------------------------|--------|------------------------------|---------|--------------| 

e|---------------------|-----------------------------| 
B|-7-x-7-x-7-x-7-x-7-7-|--10-x-10-x-10-x-10-x-10-10--| 
G|-6-x-6-x-6-x-6-x-6-6-|--9--x-9--x-9--x-9--x-9--9---| 
D|-4-x-4-x-4-x-4-x-4-4-|--7--x-7--x-7--x-7--x-7--7---| 
A|---------------------|-----------------------------| 
E|---------------------|-----------------------------| 

e|---------------------------|--11-x-11-x-11-x-14-x-14-14--| 
B|-12-x-12-x-12-x-12-x-12-12-|--12-x-12-x-12-x-12-x-12-12--| 
G|-11-x-11-x-11-x-11-x-11-11-|--11-x-11-x-11-x-11-x-11-11--| 
D|-9--x-9--x-9--x-9--x-9--9--|-----------------------------| 
A|---------------------------|-----------------------------| 
E|---------------------------|-----------------------------| 


Verse 

e|---------------------|-----------------------------| 
B|-7-x-7-x-7-x-7-x-7-7-|--10-x-10-x-10-x-10-x-10-10--| 
G|-6-x-6-x-6-x-6-x-6-6-|--9--x-9--x-9--x-9--x-9--9---| 
D|-4-x-4-x-4-x-4-x-4-4-|--7--x-7--x-7--x-7--x-7--7---| 
A|---------------------|-----------------------------| 
E|---------------------|-----------------------------| 

e|---------------------------|--11-x-11-x-11-x-14-x-14-14--| 
B|-12-x-12-x-12-x-12-x-12-12-|--12-x-12-x-12-x-12-x-12-12--| 
G|-11-x-11-x-11-x-11-x-11-11-|--11-x-11-x-11-x-11-x-11-11--| 
D|-9--x-9--x-9--x-9--x-9--9--|-----------------------------| 
A|---------------------------|-----------------------------| 
E|---------------------------|-----------------------------| 




Chorus 
       
        pm         pm            pm  
e|------------------------|---------------------------------| 
B|------------------------|---------------------------------| 
G|------------------------|---------------------------------| 
D|---------4-----------4--|---------4-----------------------| 
A|------------------------|-----------------------4-2p0-----| 
E|-0h2--2-----0h2--2------|-0h2--2------0h2--0-2-------4p0--| 



************************************ 

| x  Dead note 
| \  Slide down 
| p  Pull-off 
| h  Hammer-on 

************************************ 

Compartilhe esta música: novo

QR Code
Copiar