Tom: E
 
afinação; E B G D A E(padrão) 
 
INTRO: (palm mute, gradually release) 
e|---------------| 
B|---------------| 
G|---------------| VARIAS VEZES 
D|-8-10-11-10-8--| 
A|---------------| 
E|---------------| 
 
MAIN RIFF: 
e|------------------------------------------------| 
B|------------------------------------------------| 
G|----------------6/7-7-------------------------| 
D|-8--8--8-8--8-8-7/8-8---8-8--8--8-8--8-8-/5-5-| 
A|-8--8--8-8--8-8---------8-8--8--8-8--8-8-/3-3-| 
E|-6--6--6-6--6-6---------6-6--6--6-6--6-6-------| 
 
VERSE: (palm mute during first half of verse, release second) 
e|-----------| 
B|-----------| 
G|-----------| VARIAS VEZES 
D|-----------| 
A|-----------| 
E|-6-8-9-8-6-| 
 
INTERLUDE: 
e|-----------------------------------------------| 
B|-----------------------13^---13^-----------13^-| 
G|-----------------------------------------------| 
D|----------8--8--8-8--8-----8-----8--8-8--8-----| 
A|-1-3-4-3--8--8--8-8--8-----8-----8--8-8--8-----| 
E|----------6--6--6-6--6-----6-----6--6-6--6-----| 
PM. . . .  .  .  . .  .     .     .  . .  . 
 
 
Letra: 
 
Tell the people, 
Tell the people that arrive, 
Tell the people, 
Tell the people that arrive, 
We don't need to multiply, 
We don't need to multiply, 
We don't need to multiply, 
We don't need to multiply, 
Die. 
 
Show your people 
Show your people how we died 
Show your people 
Show your people how we died, 
We don't need to nullify, 
We don't need to nullify, 
We don't need to nullify, 
We don't need to nullify 
No need to nullify, 
No need to nullify, 
No need to nullify, 
We don't need to nullify 
Die. 
 
We don't need to, 
We don't need to, 
We don't need to, 
We don't need to. 
 
Ask your people, 
Ask your people what is right, 
Ask your people, 
Ask your people what is right, 
We don't need to multiply, 
We don't need to multiply, 
We don't need to multiply, 
We don't need to multiply, 
No need to multiply, 
No need to multiply, 
No need to multiply, 
We don't need to multiply. 

Compartilhe esta música: novo

QR Code
Copiar