Will They Die For You?

System Of A Down

 
Intro 
~~~~~ 
|---------------------------------------|-------------------| 
|---------------------------------------|-------------------| 
|---------------------------------------|-------------------| 
|--7-7---7-8-7---7-8-7---7-8-7--7-7-7-7-|-3---3---3---3-3-3-| 
|--7-7---7-7-7---7-7-7---7-7-7--7-7-7-7-|-3---3---3---3-3-3-| 
|--7-7---7-7-7---7-7-7---7-7-7--7-7-7-7-|-3---3---3---3-3-3-| 
 
Verse 1 
~~~~~~~ 
|---------------|-----------------------------|---------------13----------| 
|---------------|-----------------------------|-10--10-10-10----10--10-10-| 
|---------------|-----------------------------|---------------------------| 
|---------------|-----------------------------|---------------------------| 
|-------------8-|-8-8-8-8-8-8-7-7-7-7-8-8-8-8-|---------------------------| 
|--7-7---7-7----|-----------------------------|---------------------------| 
PM - -   - -  - 
 
|---13-|----------------13-----------13-| 
|------|--11--11-11-11----11--11-11-----| 
|------|--------------------------------| 
|------|--------------------------------| 
|------|--------------------------------| 
|------|--------------------------------| 
 
Chorus 
~~~~~~ 
|---------------------------------------|----------------------------------| 
|---------------------------------------|----------------------------------| 
|---------------------------------------|----------------------------------| 
|--7-7---7-8-7---7-8-7---7-8-7--7-7-7-7-|-8-8---8-9-8---8-9-8---8-9-8--8-8-| 
|--7-7---7-7-7---7-7-7---7-7-7--7-7-7-7-|-8-8---8-8-8---8-8-8---8-8-8--8-8-| 
|--7-7---7-7-7---7-7-7---7-7-7--7-7-7-7-|-8-8---8-8-8---8-8-8---8-8-8--8-8-| 
 
|------|-------------------| 
|------|-------------------| 
|------|-------------------| 
|--8-8-|-3---3---3---3-3-3-| 
|--8-8-|-3---3---3---3-3-3-| 
|--8-8-|-3---3---3---3-3-3-| 
 
Verse 2 
~~~~~~~ 
|--15^--15^--15^--15^--15^--15^--15^--15^--15^--15^--15^--15^--15^--15^-| 
|-----------------------------------------------------------------------| 
|-----------------------------------------------------------------------| 
|-----------------------------------------------------------------------| 
|-----------------------------------------------------------------------| 
|-----------------------------------------------------------------------| 
1    -    -    -    -    -    -    -    - 
 
|--15^--15^--15^--15^--15^--15^--15^--15^--15^--15^--15^--15^--15^--15^-| 
|-----------------------------------------------------------------------| 
|-----------------------------------------------------------------------| 
|-----------------------------------------------------------------------| 
|-----------------------------------------------------------------------| 
|-----------------------------------------------------------------------| 
1    -    -    -         -    -    -    -     
1/2                 -                             - 
1 1/2                                        - 
 
|---15^--15^--| 
|-------------| 
|-------------| 
|-------------| 
|-------------| 
|-------------| 
1     -    - 
 
Verse 3 
~~~~~~~ 
|---------------13----------|---13-|----------------13-----------13-| 
|-10--10-10-10----10--10-10-|------|--11--11-11-11----11--11-11-----| 
|---------------------------|------|--------------------------------| 
|---------------------------|------|--------------------------------| 
|---------------------------|------|--------------------------------| 
|---------------------------|------|--------------------------------| 
 
|-13--13-13-13-13-|-14--14-14-14-14-|----13----------13-|----14----------14-| 
|-13--13-13-13-13-|-14--14-14-14-14-|----13----------13-|----14----------14-| 
|-14--14-14-14-14-|-15--15-15-15-15-|-14----15-14-14----|-15----16-15-15-14-| 
|-----------------|-----------------|-------------------|-------------------| 
|-----------------|-----------------|-------------------|-------------------| 
|-----------------|-----------------|-------------------|-------------------| 
 
Outro 
~~~~~ 
|--------------------------------------------------------------------------| 
|--------------------------------------------------------------------------| 
|--------------------------------------------------------------------------| 
|--7-7-7-7-7-7-7-7-11-11-11-11-11-11-11-11-6-6-6-6-6-6-6-6-3-3-3-3-3-3-3-3-| 
|--7-7-7-7-7-7-7-7-11-11-11-11-11-11-11-11-6-6-6-6-6-6-6-6-3-3-3-3-3-3-3-3-| 
|--7-7-7-7-7-7-7-7-11-11-11-11-11-11-11-11-6-6-6-6-6-6-6-6-3-3-3-3-3-3-3-3-| 
 
_______________________________________________________ 
Contribuição: Daron Malakian([email protected]) 

Compartilhe esta música: novo

QR Code
Copiar