Violent Pornography(Tom Original)

System Of A Down

Tom: C(C
Artista: System Of A Down 
Música: Violent Pornography 
Álbum: Mezmerize 
 
Afinação: Drop C(C G C F A D) 
 
Intro 
D|-----------------------------------------------------------------| 
A|-----------------------------------------------------------------| 
F|-----------------------------------------------------------8-----| 
C|-1---5---6--6h8---9--8--6--9--8--6--5b~---------9--------------9-|2x 
G|-----------------------------------------------------------------| 
C|-----------------------------------------------------------------| 
 
Verse 
D|-------------------------------------| 
A|-------------------------------------| 
F|-------------------------------------|2x 
C|-8-9-------9-10-------10-9-------9-8-| 
G|-6-7-------7-8--------8--7-------7-6-| 
C|-------------------------------------| 
 
Pre-Chorus 
D|-------------------------------------------------------- 
A|-------------------------------------------------------- 
F|-------------------------------------------------------- 
C|-\xx-1-xxxx-1-xxxx-1-x-2-4-5-xx-1-xxxx-1-xxxx-1-x-5-4-2- 
G|-\xx-1-xxxx-1-xxxx-1-x-2-4-5-xx-1-xxxx-1-xxxx-1-x-5-4-2- 
C|-\xx-1-xxxx-1-xxxx-1-x-2-4-5-xx-1-xxxx-1-xxxx-1-x-5-4-2- 
 
--------------------------------------------------------| 
--------------------------------------------------------| 
--------------------------------------------------------| 
-xx-1-xxxx-1-xxxx-1-x-2-4-5-xx-1-xxxx-1-xxxx-1-xxxx-5-4-| 
-xx-1-xxxx-1-xxxx-1-x-2-4-5-xx-1-xxxx-1-xxxx-1-xxxx-5-4-| 
-xx-1-xxxx-1-xxxx-1-x-2-4-5-xx-1-xxxx-1-xxxx-1-xxxx-5-4-| 
 
Verse 
 
Pre-Chorus 
 
Chorus(Parte1) 
D|---------------------------------------------| 
A|---------------------------------------------| 
F|---------------------------------------------| 
C|-1~---5~---6~---8~---9~---(11)~---(13)~---9~-| 
G|-1~---5~---6~---8~---9~---(11)~---(13)~---9~-| 
C|-1~---5~---6~---8~---9~---(11)~---(13)~---9~-| 
 
Chorus(Parte2) 
D|------------------------------------------------------ 
A|------------------------------------------------------ 
F|------------------------------------------------------ 
C|-1-111111---5-555555---6-666666---8-888888---9-999999- 
G|-1-111111---5-555555---6-666666---8-888888---9-999999- 
C|-1-111111---5-555555---6-666666---8-888888---9-999999- 
                              
 
----------------------------------------------------------------------------| 
----------------------------------------------------------------------------| 
----------------------------------------------------------------------------| 
---(11)-(11)(11)(11)(11)(11)(11)---(13)-(13)(13)(13)(13)(13)(13)---9-999999-| 
---(11)-(11)(11)(11)(11)(11)(11)---(13)-(13)(13)(13)(13)(13)(13)---9-999999-| 
---(11)-(11)(11)(11)(11)(11)(11)---(13)-(13)(13)(13)(13)(13)(13)---9-999999-| 
         <<<<<<<<>>>>>>>>>          <<<<<<<<>>>>>>>>>       
 
Verse 
 
Pre-Chorus 
 
Chorus(Parte1) 2x 
 
Chorus(Parte2)  
 
Chorus(Parte1)(Repetindo os 2 últimos acordes) 
 
Intro 
 
***************************************************************************** 
Aeeeeee, minha primeira tablatura!!!!! Ohhh... O tom certo pra tocar qualquer 
música do S.O.A.D. é esse hein??? Qualquer outro é só pra complicar... hauhau 
Valeu e divirta-se!!! 
***************************************************************************** 
Tablatura redigida por .::Z0i0SaMpA::. 
***************************************************************************** 

Compartilhe esta música: novo

QR Code
Copiar