Tom: Db
U-fig 
System of a Down 
 
Tuning: Db Ab Db Gb Bb Eb 
              ou 
        C# G# C# F# A# D# 
 
Introdução 
 
|---------------------------------------|-------| 
|---------------------------------------|       | 
|7-7-7-7--9-9-9-9--10-10-10-10---10-9-5-| X2    | 
|0-0-0-0--0-0-0-0--0--0--0--0----0--0-0-|       |  X2 
|---------------------------------------|       | 
|---------------------------------------|       | 
                                                | 
|--------------------|                          | 
|--6---6-----5---5---|                          |  
|-3--33--3--3--33--3-|                          | 
|--------------------|                          | 
|--------------------|                          | 
|--------------------|--------------------------| 
 
Verso 
 
|--------------------------| 
|--------------------------| 
|--------------------------|X8 
|--------------------------| 
|--------------------------| 
|-0h2-2-2-2-2--3p2-2-2-2-2-| 
 
Refrão 
 
|-------------------------------------------| 
|-------------------------------------------| 
|-------------------------------------------| 
|-7-7-7----5---7-7--------------------------|X2 
|-5-5-5---3-3--5-5--6-5-6-5-6-5-6-5-6-5-6-5-| 
|-------------------------------------------| 
 
Verso 
 
|--------------------------| 
|--------------------------| 
|--------------------------|X8 
|--------------------------| 
|--------------------------| 
|-0h2-2-2-2-2--3p2-2-2-2-2-| 
 
Refrão 
 
|-------------------------------------------| 
|-------------------------------------------| 
|-------------------------------------------| 
|-7-7-7----5---7-7--------------------------|X4 
|-5-5-5---3-3--5-5--6-5-6-5-6-5-6-5-6-5-6-5-| 
|-------------------------------------------| 
 
 
 
 
 
|---------------------------------------| 
|---------------------------------------|       
|7-7-7-7--9-9-9-9--10-10-10-10---10-9-5-| X2    
|0-0-0-0--0-0-0-0--0--0--0--0----0--0-0-|        
|---------------------------------------|        
|---------------------------------------| 
 
|--------------------| 
|--6---6-----5---5---|                           
|-3--33--3--3--33--3-|                           
|--------------------|                           
|--------------------|                           
|--------------------| 
 
|---------------------------------------| 
|---------------------------------------|       
|7-7-7-7--9-9-9-9--10-10-10-10---10-9-5-|     
|0-0-0-0--0-0-0-0--0--0--0--0----0--0-0-|        
|---------------------------------------|        
|---------------------------------------| 
 
|--------------------| 
|--6---6-----5---5---|                           
|-3--33--3--3--33--3-|                           
|--------------------|                           
|--------------------|X2                           
|--------------------|  
 
antes de entrar na parte calma 
 
|-----------------| 
|-----------------|       
|-14--14-14-14-14-|     
|-----------------| X8       
|-12--12-12-12-12-|        
|-----------------| 
 
Solo 
 
(Guitarra 1) 
|------------------------------------------------------------| 
|------------------------------------------------------------|       
|-14--14-14-14-14--14--14-14-14-14------------------15-15-14-|     
|-15--15-15-15-15--15--15-15-15-15-14--14-14-14-14-----------|        
|----------------------------------15--15-15-15-15--15-15-15-|        
|------------------------------------------------------------| 
 
|-----------------------------------------------------------------| 
|-----------------------------------------------------------------|       
|-----------------------------------------------------------------|     
|-15--15-15-15-15--15--15-15-15--15--15-15-15-15--15--15-15-15-15-|        
|-13--13-13-13-13--13--13-13-12--13--13-13-13-13--13--13-13-13-13-|        
|-----------------------------------------------------------------| 
 
(Guitarra 2) 
|------------------------------------------------------------| 
|-15-15-15-15-15-15-15-15-15-15-15-15-15-15-15-15-15-15\-----|       
|------------------------------------------------------------|     
|------------------------------------------------------------|        
|------------------------------------------------------------|        
|------------------------------------------------------------| 
 
(Guitarra 1) 
|------------------------------------------------------------| 
|------------------------------------------------------------|       
|-14--14-14-14-14--14--14-14-14-14------------------15-15-14-|     
|-15--15-15-15-15--15--15-15-15-15-14--14-14-14-14-----------|        
|----------------------------------15--15-15-15-15--15-15-15-|        
|------------------------------------------------------------| 
 
|-----------------------------------------------------------------| 
|-----------------------------------------------------------------|       
|-----------------------------------------------------------------|     
|-15--15-15-15-15--15--15-15-15--15--15-15-15-15--15--15-15-15-15-|        
|-13--13-13-13-13--13--13-13-12--13--13-13-13-13--13--13-13-13-13-|        
|-----------------------------------------------------------------| 
 
(Guitarra 2) 
|--------------------------------------------| 
|--------------------------------------------|       
|-15-15-14-14--12-------15-------------------|     
|----------------15-14-----12-12-------------|        
|--------------------------------15-13-12-13-|        
|--------------------------------------------| 
 
Verso 
 
|--------------------------| 
|--------------------------| 
|--------------------------|X4 
|--------------------------| 
|--------------------------| 
|-0h2-2-2-2-2--3p2-2-2-2-2-| 
 
(Guitarra 1) 
|------------------------------------------------------------| 
|------------------------------------------------------------|       
|-14--14-14-14-14--14--14-14-14-14------------------15-15-14-|     
|-15--15-15-15-15--15--15-15-15-15-14--14-14-14-14-----------|        
|----------------------------------15--15-15-15-15--15-15-15-|        
|------------------------------------------------------------| 
 
 
(Guitarra 2) 
|-17-17-17-17-17-17-    -18-18-18-18-18-18- 
|-15-15-15-15-15-15-    -15-15-15-15-15-15-   
|-------------------X2  ------------------- X2    
|-------------------    -------------------     
|-------------------    -------------------     
|-------------------    ------------------- 
 
----------------| 
-15-13----------| 
-15-14-15-------| 
-------17-------| 
----------12-13-| 
----------------| 
 
Verso 
 
|--------------------------| 
|--------------------------| 
|--------------------------|X4 
|--------------------------| 
|--------------------------| 
|-0h2-2-2-2-2--3p2-2-2-2-2-| 
 
Refrão 
 
|-------------------------------------------| 
|-------------------------------------------| 
|-------------------------------------------| 
|-7-7-7----5---7-7--------------------------|X4   
|-5-5-5---3-3--5-5--6-5-6-5-6-5-6-5-6-5-6-5-|    
|-------------------------------------------| 
 
solo final 
 
|---------------------------------------| 
|---------------------------------------|        
|7-7-7-7--9-9-9-9--10-10-10-10---10-9-5-| X2     
|0-0-0-0--0-0-0-0--0--0--0--0----0--0-0-|        
|---------------------------------------|        
|---------------------------------------| 
 
|-------------------------| 
|-------------------------|                           
|---10----10-----9----9---|                           
|------8-----8-----8----8-|                           
|--------8-----------8----| X2                           
|-8------------8----------| 
 
|--------------------------------------------------------------| 
|--------------------------------------------------------------|                           
|---9-----9-----9-----9-----9-----9-----9----9---------9----14-|                           
|-----7-----7-----7-----7-----7-----7-----7----7------7----12--|                           
|-------7-----------7-----------7-----7-----7----7---7----12---|                            
|-7----------7------------7-------------------------7----12----| 

Compartilhe esta música: novo

QR Code
Copiar