Toxicyty

System Of A Down

 
INTRO: Clean, perhaps with octaver and/or chorus 
D|---------------------------------------------------- 
A|---------------------------------------------------- 
F|---------------------------------------------------- 
C|---7---7---7---7---7---7---10--10--10--10--10-10---- 
G|-5---5---5---5---5---5---8---8---8---8---8---8------ 
C|---------------------------------------------------- 
 | 
 |------------------------------------------------------ 
 |------------------------------------------------------ 
 |------------------------------------------------------ 
 |---7---7---7---7-8---8-7---7--10--12--12-10--10-8---8- 
 |-5---5---5---5-----5-----5---8---8---8------8-----8--- 
 |------------------------------------------------------ 
 
 
 
CHORUS: Distortion. 
D|----------------------------------------------- 
A|----------------------------------------------- 
F|----------------------------------------------- 
C|-0--------------------------8--8-8-8--7--7-7-7- 
G|-0---------32020------------8--8-8-8--7--7-7-7- 
C|-0---------32020------------8--8-8-8--7--7-7-7- 
 |        {MUTED} 
 | 
 |----------------------------------------------- 
 |----------------------------------------------- 
 |----------------------------------------------- 
 |-0--------------------------8--8-8-8--7--7-7-7- 
 |-0---------32020------------8--8-8-8--7--7-7-7- 
 |-0---------32020------------8--8-8-8--7--7-7-7- 
 |        {MUTED} 
 | 
 |----------------------------------------------- 
 |----------------------------------------------- 
 |----------------------------------------------- 
 |----------------------------8--8-8-8--7--7-7-7- 
 |--320200320200320200320200--8--8-8-8--7--7-7-7- 
 |--320200320200320200320200--8--8-8-8--7--7-7-7- 
 | {PALM MUTED............} 
 | 
 |----------------------------------------------- 
 |----------------------------------------------- 
 |----------------------------------------------- 
 |-0--------------------------8--8-8-8--7--7-7-7- 
 |-0---------32020------------8--8-8-8--7--7-7-7- 
 |-0---------32020------------8--8-8-8--7--7-7-7- 
          {MUTED} 
 
 
 
 
VERSE: Clean, perhaps with octaver and/or chorus 
D|---------------------------------------------------- 
A|---------------------------------------------------- 
F|---------------------------------------------------- 
C|---7---7---7---7---7---7---10--10--10--10--10-10---- 
G|-5---5---5---5---5---5---8---8---8---8---8---8------ 
C|---------------------------------------------------- 
 | 
 |------------------------------------------------------ 
 |------------------------------------------------------ 
 |------------------------------------------------------ 
 |---7---7---7---7-8---8-7---7--10--12--12-10--10-8---8- 
 |-5---5---5---5-----5-----5---8---8---8------8-----8--- 
 |------------------------------------------------------ 
 | 
 |---------------------------------------------------- 
 |---------------------------------------------------- 
 |---------------------------------------------------- 
 |---7---7---7---7---7---7---10--10--10--10--10-10---- 
 |-5---5---5---5---5---5---8---8---8---8---8---8------ 
 |---------------------------------------------------- 
 | 
 |---------------------------------------------------- 
 |---------------------------------------------------- 
 |-------------------------------9-----10-----9------- 
 |---7---7---7---7---7---7---10----10----10-----10---- 
 |-5---5---5---5---5---5---8---8------8-----8------8-- 
 |---------------------------------------------------- 
 | 
 |---------------------------------------------------- 
 |---------------------------------------------------- 
 |---------------------------------------------------- 
 |---7---7---7---7---7---7---10--10--10--10--10-10---- 
 |-5---5---5---5---5---5---8---8---8---8---8---8------ 
 |---------------------------------------------------- 
 | 
 |---------------------------------------------------- 
 |---------------------------------------------------- 
 |-------------------------------9-----10-----9------- 
 |---7---7---7---7---7---7---10----10----10-----10---- 
 |-5---5---5---5---5---5---8---8------8-----8------8-- 
 |---------------------------------------------------- 
 
 
 
POST-CHORUS: Distortion. 
NOTE: The bends in the following parts are very slight.  
      They're could be made by pressing down harder on the 
      string rather than bending in the normal sense. 
D|---------------------------------------------------- 
A|---------------------------------------------------- 
F|---------------------------------------------------- 
C|-0---0-0-0-0-3-00-2^------0---0-0-0-0--3-00-2^------ x 2 
G|---------------------------------------------------- 
C|---------------------------------------------------- 
 | 
 | 
 |----------------------------------------- 
 |----------------------------------------- 
 |----------------------------------------- 
 |----------------------------------------- x 2 
 |-320-0-0-0-220-0-0-0-320-0-0-0-220-0-0-0- 
 |-320-0-0-0-220-0-0-0-320-0-0-0-220-0-0-0- 
 | {PALM MUTED...........................} 
 | 
 |---------------------------------------------------- 
 |---------------------------------------------------- 
 |---------------------------------------------------- 
 |---------------------------------------------------- x 2 
 |-0---0-0-0-0-330----------0---0-0-0-0-330----------- 
 |-0---0-0-0-0-330-2^-------0---0-0-0-0-330-2^-------- 
 | {PALM MUTED...}          {PALM MUTED...} 
 | 
 |----------------------------------------- 
 |----------------------------------------- 
 |----------------------------------------- 
 |----------------------------------------- x 2 
 |-320-0-0-0-220-0-0-0-320-0-0-0-220-0-0-0- 
 |-320-0-0-0-220-0-0-0-320-0-0-0-220-0-0-0- 
 | {PALM MUTED...........................} 
 
 
 
ENDING: Distortion. 
D|----------------------------------------- 
A|----------------------------------------- 
F|----------------------------------------- 
C|----------------------------------------- x 2 
G|-320-0-0-0-220-0-0-0-320-0-0-0-220-0-0-0- 
C|-320-0-0-0-220-0-0-0-320-0-0-0-220-0-0-0- 
 | {PALM MUTED...........................} 
 | 
 |---------------------------------------------------- 
 |---------------------------------------------------- 
 |---------------------------------------------------- 
 |---------------------------------------------------- x 2 
 |-0---0-0-0-0-330----------0---0-0-0-0-330----------- 
 |-0---0-0-0-0-330-2^-------0---0-0-0-0-330-2^-------- 
 | {PALM MUTED...}          {PALM MUTED...} 
 
 
 
 
 
======== 
APPENDIX 
======== 
 
 
 
Ok here are the intro and verse parts from the original 
tab. They're in the octave you hear on the record 
 
INTRO: Clean, All palm-muted. 
D|---------------------------------------------------- 
A|--10--10--10--10--10--10-/--13--13--13--13--13--13-- 
F|-7---7---7---7---7---7---/10--10--10--10--10--10---- 
C|---------------------------------------------------- 
G|---------------------------------------------------- 
C|---------------------------------------------------- 
 | 
 | 
 |----------------------------------10--10-------------- 
 |--10--10--10-11--11-10--10---13---------13--13-11--11- 
 |-7---7---7------7------7--10--10---10----10-----10--- 
 |------------------------------------------------------ 
 |------------------------------------------------------ 
 |------------------------------------------------------ 
 
 
 
VERSE: Clean. 
D|---------------------------------------------------- 
A|--10--10--10--10--10--10-/--13--13--13--13--13--13-- 
F|-7---7---7---7---7---7---/10--10--10--10--10--10---- 
C|---------------------------------------------------- 
G|---------------------------------------------------- 
C|---------------------------------------------------- 
 | 
 | 
 |--------------------------------10--10-------------- 
 |--10--10--10-11--11-10--10--13--------13--13-11--11- 
 |-7---7---7------7------7--10--10--10----10-----10--- 
 |---------------------------------------------------- 
 |---------------------------------------------------- 
 |----------------------------------------------------- 
 | 
 | 
 |--------------------------------12----13----12------ 
 |--10--10--10--10--10--10-/--13------13----13----13-- 
 |-7---7---7---7---7---7---/10--10--10----10----10---- 
 |---------------------------------------------------- 
 |---------------------------------------------------- 
 |---------------------------------------------------- 
 | 
 | 
 |--------------------------------10--10-------------- 
 |--10--10--10-11--11-10--10--13--------13--13-11--11- 
 |-7---7---7------7------7--10--10--10----10-----10--- 
 |---------------------------------------------------- 
 |---------------------------------------------------- 
 |---------------------------------------------------- 
 | 
 | 
 |--------------------------------12----13----12------ 
 |--10--10--10--10--10--10-/--13------13----13----13-- 
 |-7---7---7---7---7---7---/10--10--10----10----10---- 
 |---------------------------------------------------- 
 |---------------------------------------------------- 
 |---------------------------------------------------- 
 | 
 | 
 |--------------------------------10--10-------------- 
 |--10--10--10-11--11-10--10--13--------13--13-11--11- 
 |-7---7---7------7------7--10--10--10----10-----10--- 
 |---------------------------------------------------- 
 |---------------------------------------------------- 
 |---------------------------------------------------- 
 
 
 
_______________________________________________________ 
Contribuição: Coelho ºcTmVº([email protected]) 

Compartilhe esta música: novo

QR Code
Copiar