Toxicity (intro ver. prática)

System Of A Down

  
E--8----8---8---8---8---8----11---11---11---11---11---11------------------  
B------------------------------------------------------------------------  
G----5---5---5---5---5---5----8----8----8----8----8----8-------------------  
D------------------------------------------------------------------------  
A------------------------------------------------------------------------  
E------------------------------------------------------------------------  
  
  
  
E------------------------------------------------------------------------  
B----8---8---8-9---9-8----------11-----13-----13-11-----11-9-----9-------  
G--5---5---5-----5-----5-----8------8------8---------8--------8----------  
D------------------------------------------------------------------------  
A------------------------------------------------------------------------  
E------------------------------------------------------------------------  

Compartilhe esta música: novo

QR Code
Copiar