Toxicicy

System Of A Down

System of a down 
Toxicity 
por [email protected] 
 
 
INTRO 
1.---3---3--3---3----6--6--6--6--- 
2.-1---1---1--1-----4--4--4--4---- 
3.-------------------------------- 
4.-------------------------------- 
5.-------------------------------- 
6.-------------------------------- 
 
1.---3--3--3--3-4---4-0 
2.-1---1--1--1----0---- 
3.--------------------- 
4.--------------------- 
5.--------------------- 
6.--------------------- 
 
1.---6--6---6---6--7--7-0 
2.-4---4---4---4----0---- 
3.----------------------- 
4.----------------------- 
5.----------------------- 
6.----------------------- 

Compartilhe esta música: novo

QR Code
Copiar