This Cocaine Makes Me Feel Like I'm On This Song

System Of A Down

Não se esqueçam da nova afinação que o Soad ta usando!!!! 
 
Introdução 
Eb|---------------------------------| 
Bb|---------------------------------| 
Gb|---------------------------------| 
Db|--66---4-7-66---4-6-77---9-7-66--| 
Ab|--66---4-7-66---4-6-77---9-7-66--| 
Db|--66---4-7-66---4-6-77---9-7-66--| 
 
   Parte I                                                                             
Eb|-------------------------------------------------------------------------------||-------| 
Bb|-------------------------------------------------------------------------------||-------| 
Gb|---------88888b9r88---------88888b9r88---------99999b10r99---------88888b9r88--||-------| 
Db|--4-7-66-------------4-7-66-------------4-6-77--------------9-7-66-------------||--4-7--| 
Ab|--4-7-66-------------4-7-66-------------4-6-77--------------9-7-66-------------||--4-7--| 
Db|--4-7-66-------------4-7-66-------------4-6-77--------------9-7-66-------------||--4-7--|  
 
   Parte 2 
Eb|----------------------------------------------------------------------------------| 
Bb|----------------------------------------------------------------------------------| 
Gb|----------------------------------------------------------------------------------| 
Db|----------------------------------------------------------------------------------| 
Ab|--10-10-9-10-9-10-99--10-10-9-10-9-10-99---10-10-9-10-9-10-99--10-10-9-10-9-10-9--| 
Db|--10-10-9-10-9-10-99--10-10-9-10-9-10-99---10-10-9-10-9-10-99--10-10-9-10-9-10-9--| 
 
Eb|------------------------------------------------------------------------------------------------------| 
Bb|------------------------------------------------------------------------------------------------------| 
Gb|--12-12-11-12-11-12-11-11---12-12-11-12-11-12-11-11---12-12-11-12-11-12-11-11---12-12-11-12-11-12-11--| 
Db|------------------------------------------------------------------------------------------------------| 
Ab|------------------------------------------------------------------------------------------------------| 
Db|------------------------------------------------------------------------------------------------------| 
 
   Parte 3 
Eb|------------------------------------| 
Bb|------------------------------------| 
Gb|----888888888888ttt-----------------| 
Db|--6--------------------7--7--77-77--| 
Ab|--6--------------------7--7--77-77--| 
Db|--6--------------------7--7--77-77--| 
 
   Parte 4 
Eb|------------------------------------------------------------------------| 
Bb|------------------------------------------------------------------------| 
Gb|------------------------------------------------------------------------| 
Db|-----------------------------------------------------------7--7--77-77--| 
Ab|-----------------------------------------------------------7--7--77-77--| 
Db|--777666-777666-777666-777666-777666-777666-777666-777666--7--7--77-77--|  
  pm ...... ...... ...... ...... ...... ...... ...... ...... 
 
 
Eb|------------------------------------------------------------------------| 
Bb|------------------------------------------------------------------------| 
Gb|------------------------------------------------------------------------| 
Db|-----------------------------------------------------------7--7--77-77--| 
Ab|-----------------------------------------------------------7--7--77-77--| 
Db|--770660-770660-770660-770660-770660-770660-770660-770660--7--7--77-77--|  
  pm ...... ...... ...... ...... ...... ...... ...... ...... 
 
 
 
   Parte 3b 
Eb|------------------------------------------------| 
Bb|------------------------------------------------| 
Gb|----888888888888t-11tt--------9tt---------------| 
Db|--6-------------------11tt10tt-----7--7--77-77--| 
Ab|--6--------------------------------7--7--77-77--| 
Db|--6--------------------------------7--7--77-77--|  
 
   Parte 6 
Eb|-------------------------------------------------------------| 
Bb|-------------------------------------------------------------| 
Gb|-------------------------------------------------------------| 
Db|------------------------------------------------7--7--77-77--| 
Ab|-------------------------------9ttt7ttt6ttt7ttt-7--7--77-77--| 
Db|--777666-777666-777666-777666-------------------7--7--77-77--| 
  pm ...... ...... ...... ......  ................ 
 
 
Final 
 
Eb|---------| 
Bb|---------| 
Gb|---------| 
Db|--4-7-6--| 
Ab|--4-7-6--| 
Db|--4-7-6--| 
 

Compartilhe esta música: novo

QR Code
Copiar