Thetawaves

System Of A Down

 
INTRO: 
                                               
D||------------------------------------------| 
A||------------------------------------------| 
F||------------------------------------------| 
C||------------------------------------------| 
G||--11-0-11-0-11-0-11-0-11-0-11-0-11-0-11-0-| 
C||--11-0-11-0-11-0-11-0-11-0-11-0-11-0-11-0-| 
 
 
                                            
------------------------------------------| 
------------------------------------------| 
------------------------------------------| 
------------------------------------------| 
--11-0-11-0-11-0-11-0-12-0-12-0-12-0-12-0-| 
--11-0-11-0-11-0-11-0-12-0-12-0-12-0-12-0-| 
 
 
                                                                               
--------------------------------------|--------------------------------------| 
--------------------------------------|--------------------------------------| 
--------------------------------------|--------------------------------------| 
----------17---17-----------17---17---|--------------------------------------| 
--5-0-5-0---------0-5-0-5-0-----------|--12-0-12-0-12-0-12-0-5-0-5-0-5-0-5-0-| 
--5-0-5-0-5--0-5--0-5-0-5-0-5--0-5--0-|--12-0-12-0-12-0-12-0-5-0-5-0-5-0-5-0-| 
 
 
                                            
------------------------------------------| 
------------------------------------------| 
------------------------------------------| 
------------------------------------------| 
--11-0-11-0-11-0-11-0-11-0-11-0-11-0-11-0-| 
--11-0-11-0-11-0-11-0-11-0-11-0-11-0-11-0-| 
 
 
                                            
------------------------------------------| 
------------------------------------------| 
------------------------------------------| 
------------------------------------------| 
--11-0-11-0-11-0-11-0-12-0-12-0-12-0-12-0-| 
--11-0-11-0-11-0-11-0-12-0-12-0-12-0-12-0-| 
 
 
                                                                            
--------------------------------------|-----------------------------------| 
--------------------------------------|-----------------------------------| 
--------------------------------------|-----------------------------------| 
----------17---17-----------17---17---|-----------------------------------| 
--5-0-5-0---------0-5-0-5-0-----------|--12-0-12-0-12-0-12-0-5-0-5-0-5----| 
--5-0-5-0-5--0-5--0-5-0-5-0-5--0-5--0-|--12-0-12-0-12-0-12-0-5-0-5-0-5----| 
 
VERSE: 
                                                               
----------------------------------|--------------------------| 
----------------------------------|--------------------------| 
----------------------------------|--------------------------| 
----------------------------------|--------4--4--------4--4--| 
----------------------------------|--------------------------| 
--5-5-5-5-5-5-7-5-5-5-5-5-5-5-7-5-|--4--4--------4--4--------| 
 
 
                                                                   
----------------------------------|------------------------------| 
----------------------------------|------------------------------| 
----------------------------------|------------------------------| 
----------------------------------|-----4-x----4-x----4-x----4-x-| 
----------------------------------|------------------------------| 
--5-5-5-5-5-5-7-5-5-5-5-5-5-5-7-5-|--4------4------4------4------| 
 
 
                                                               
----------------------------------|--------------------------| 
----------------------------------|--------------------------| 
----------------------------------|--------------------------| 
----------------------------------|--------4--4--------4--4--| 
----------------------------------|--------------------------| 
--5-5-5-5-5-5-7-5-5-5-5-5-5-5-7-5-|--4--4--------4--4--------| 
 
 
                                                                   
----------------------------------|------------------------------| 
----------------------------------|------------------------------| 
----------------------------------|------------------------------| 
----------------------------------|-----4-x----4-x----4-0----4-0-| 
----------------------------------|------------------------------| 
--5-5-5-5-5-5-7-5-5-5-5-5-5-5-7-5-|--4------4------4------4------| 
 
 
                                                             
----------------------------|------------------------------| 
----------------------------|------------------------------| 
----------------------------|------------------------------| 
--5--5--0-0-0--5--5--0-0-0--|--4--4-4--4-4--4-4--4-4-4-4-4-| 
--5--5--0-0-0--5--5--0-0-0--|--4--4-4--4-4--4-4--4-4-4-4-4-| 
--5--5--0-0-0--5--5--0-0-0--|--4--4-4--4-4--4-4--4-4-4-4-4-| 
 
 
                                                                                
----------------------------|------------------------|------------------------| 
----------------------------|------------------------|------------------------| 
----------------------------|------------------------|------------------------| 
--5--5--0-0-0--5--5--0-0-0--|--4---5---4--7---5---4--|--4---5-----------------| 
--5--5--0-0-0--5--5--0-0-0--|--4---5---4--7---5---4--|--4---5---0--2---4---5--| 
--5--5--0-0-0--5--5--0-0-0--|--4---5---4--7---5---4--|--4---5-----------------| 
 
 
                                                                             
------------------------|-------------------------|------------------------| 
------------------------|-------------------------|------------------------| 
------------------------|-------------------------|------------------------| 
--4---5---4--7---5---4--|-------------------------|--4---5---4--7---5---4--| 
--4---5---4--7---5---4--|--2---4---2--4/5--4---2--|--4---5---4--7---5---4--| 
--4---5---4--7---5---4--|-------------------------|--4---5---4--7---5---4--| 
 
 
                                                                             
------------------------|------------------------|-------------------------| 
------------------------|------------------------|-------------------------| 
------------------------|------------------------|-------------------------| 
--4---5-----------------|--4---5---4--7---5---4--|-------------------------| 
--4---5---0--2---4---5--|--4---5---4--7---5---4--|--2---4---2--4/5--4---2--| 
--4---5-----------------|--4---5---4--7---5---4--|-------------------------| 
 
 
                                                             
------------------------|----------------------------------| 
------------------------|----------------------------------| 
------------------------|----------------------------------| 
--4---5---4--7---5---4--|----------------------------------| 
--4---5---4--7---5---4--|----------------------------------| 
--4---5---4--7---5---4--|--5-5-5-5-5-5-7-5-5-5-5-5-5-5-7-5-| 
 
 
                                                               
--------------------------|----------------------------------| 
--------------------------|----------------------------------| 
--------------------------|----------------------------------| 
--------4--4--------4--4--|----------------------------------| 
--------------------------|----------------------------------| 
--4--4--------4--4--------|--5-5-5-5-5-5-7-5-5-5-5-5-5-5-7-5-| 
 
 
                                                               
--------------------------|----------------------------------| 
--------------------------|----------------------------------| 
--------------------------|----------------------------------| 
--------4--4--------4--4--|----------------------------------| 
--------------------------|----------------------------------| 
--4--4--------4--4--------|--5-5-5-5-5-5-7-5-5-5-5-5-5-5-7-5-| 
 
 
                                                                   
------------------------------|----------------------------------| 
------------------------------|----------------------------------| 
------------------------------|----------------------------------| 
-----4-x----4-x----4-x----4-x-|----------------------------------| 
------------------------------|----------------------------------| 
--4------4------4------4------|--5-5-5-5-5-5-7-5-5-5-5-5-5-5-7-5-| 
 
 
                                                               
--------------------------|----------------------------------| 
--------------------------|----------------------------------| 
--------------------------|----------------------------------| 
--------4--4--------4--4--|----------------------------------| 
--------------------------|----------------------------------| 
--4--4--------4--4--------|--5-5-5-5-5-5-7-5-5-5-5-5-5-5-7-5-| 
 
 
                                                             
------------------------------|----------------------------| 
------------------------------|----------------------------| 
------------------------------|----------------------------| 
-----4-x----4-x----4-0----4-0-|--5--5--0-0-0--5--5--0-0-0--| 
------------------------------|--5--5--0-0-0--5--5--0-0-0--| 
--4------4------4------4------|--5--5--0-0-0--5--5--0-0-0--| 
 
 
                                                             
------------------------------|----------------------------| 
------------------------------|----------------------------| 
------------------------------|----------------------------| 
--4--4-4--4-4--4-4--4-4-4-4-4-|--5--5--0-0-0--5--5--0-0-0--| 
--4--4-4--4-4--4-4--4-4-4-4-4-|--5--5--0-0-0--5--5--0-0-0--| 
--4--4-4--4-4--4-4--4-4-4-4-4-|--5--5--0-0-0--5--5--0-0-0--| 
 
 
                                                                            
------------------------|------------------------|------------------------| 
------------------------|------------------------|------------------------| 
------------------------|------------------------|------------------------| 
--4---5---4--7---5---4--|--4---5-----------------|--4---5---4--7---5---4--| 
--4---5---4--7---5---4--|--4---5---0--2---4---5--|--4---5---4--7---5---4--| 
--4---5---4--7---5---4--|--4---5-----------------|--4---5---4--7---5---4--| 
 
 
                                                                             
-------------------------|------------------------|------------------------| 
-------------------------|------------------------|------------------------| 
-------------------------|------------------------|------------------------| 
-------------------------|--4---5---4--7---5---4--|--4---5-----------------| 
--2---4---2--4/5--4---2--|--4---5---4--7---5---4--|--4---5---0--2---4---5--| 
-------------------------|--4---5---4--7---5---4--|--4---5-----------------| 
 
 
                                                    
------------------------|-------------------------| 
------------------------|-------------------------| 
------------------------|-------------------------| 
--4---5---4--7---5---4--|-------------------------| 
--4---5---4--7---5---4--|--2---4---2--4/5--4---2--| 
--4---5---4--7---5---4--|-------------------------| 
 
SOLO: 
                                                                           
--7-7-7-7-7-7-7-7-9-9-9-9-10-10-10-10-|--9-9-9-9-9-9-9-9-----------------| 
--------------------------------------|------------------8-8-8-8-7-7-7-7-| 
--------------------------------------|----------------------------------| 
--------------------------------------|----------------------------------| 
--------------------------------------|----------------------------------| 
--------------------------------------|----------------------------------| 
 
 
                                        
--7-7-7-7-7-7-7-7-9-9-9-9-10-10-10-10-| 
--------------------------------------| 
--------------------------------------| 
--------------------------------------| 
--------------------------------------| 
--------------------------------------| 
 
 
                                            
--9-9-9-9-9-9-9-9/14-14-14-14-14-14-14-14-| 
------------------------------------------| 
------------------------------------------| 
------------------------------------------| 
------------------------------------------| 
------------------------------------------| 
 
 
                                                                           
--7-7-7-7-7-7-7-7-9-9-9-9-10-10-10-10-|--9-9-9-9-9-9-9-9-----------------| 
--------------------------------------|------------------8-8-8-8-7-7-7-7-| 
--------------------------------------|----------------------------------| 
--------------------------------------|----------------------------------| 
--------------------------------------|----------------------------------| 
--------------------------------------|----------------------------------| 
 
 
                                        
--7-7-7-7-7-7-7-7-9-9-9-9-10-10-10-10-| 
--------------------------------------| 
--------------------------------------| 
--------------------------------------| 
--------------------------------------| 
--------------------------------------| 
 
 
                                                                           
--9-9-9-9-9-9-9-9/14-14-14-14-14-14-14-14-|--15----14--12--14----12--10--| 
------------------------------------------|------------------------------| 
------------------------------------------|------------------------------| 
------------------------------------------|------------------------------| 
------------------------------------------|------------------------------| 
------------------------------------------|------------------------------| 
 
 
                                                        
--12----10--9--10----9----|--12----10--9--10----9--7--| 
--------------------------|---------------------------| 
--------------------------|---------------------------| 
--------------------------|---------------------------| 
--------------------------|---------------------------| 
--------------------------|---------------------------| 
 
 
                                                                         
--6--7--9----9----9--9-9/|--7----7----7----7----|--6----6----6----6----| 
-------------------------|----------------------|----------------------| 
-------------------------|----------------------|----------------------| 
-------------------------|----------------------|----------------------| 
-------------------------|----------------------|----------------------| 
-------------------------|----------------------|----------------------| 
 
 
                                                        
--7----7----7----7--7--|--6--6--6--6--6-6-6-6-6-6-6-6-| 
-----------------------|------------------------------| 
-----------------------|------------------------------| 
-----------------------|------------------------------| 
-----------------------|------------------------------| 
-----------------------|------------------------------| 
 
 
                                                             
----------------------------|------------------------------| 
----------------------------|------------------------------| 
----------------------------|------------------------------| 
--5--5--0-0-0--5--5--0-0-0--|--4--4-4--4-4--4-4--4-4-4-4-4-| 
--5--5--0-0-0--5--5--0-0-0--|--4--4-4--4-4--4-4--4-4-4-4-4-| 
--5--5--0-0-0--5--5--0-0-0--|--4--4-4--4-4--4-4--4-4-4-4-4-| 
 
 
                                                       
----------------------------|------------------------| 
----------------------------|------------------------| 
----------------------------|------------------------| 
--5--5--0-0-0--5--5--0-0-0--|--4---5---4--7---5---4--| 
--5--5--0-0-0--5--5--0-0-0--|--4---5---4--7---5---4--| 
--5--5--0-0-0--5--5--0-0-0--|--4---5---4--7---5---4--| 
 
 
                                                             
----------------------------|------------------------------| 
----------------------------|------------------------------| 
----------------------------|------------------------------| 
--5--5--0-0-0--5--5--0-0-0--|--4--4-4--4-4--4-4--4-4-4-4-4-| 
--5--5--0-0-0--5--5--0-0-0--|--4--4-4--4-4--4-4--4-4-4-4-4-| 
--5--5--0-0-0--5--5--0-0-0--|--4--4-4--4-4--4-4--4-4-4-4-4-| 
 
 
                                                                                
----------------------------|------------------------|------------------------| 
----------------------------|------------------------|------------------------| 
----------------------------|------------------------|------------------------| 
--5--5--0-0-0--5--5--0-0-0--|--4---5---4--7---5---4--|--4---5-----------------| 
--5--5--0-0-0--5--5--0-0-0--|--4---5---4--7---5---4--|--4---5---0--2---4---5--| 
--5--5--0-0-0--5--5--0-0-0--|--4---5---4--7---5---4--|--4---5-----------------| 
 
 
                                                                             
------------------------|-------------------------|------------------------| 
------------------------|-------------------------|------------------------| 
------------------------|-------------------------|------------------------| 
--4---5---4--7---5---4--|-------------------------|--4---5---4--7---5---4--| 
--4---5---4--7---5---4--|--2---4---2--4/5--4---2--|--4---5---4--7---5---4--| 
--4---5---4--7---5---4--|-------------------------|--4---5---4--7---5---4--| 
 
 
                                                                              
------------------------|------------------------|-------------------------|| 
------------------------|------------------------|-------------------------|| 
------------------------|------------------------|-------------------------|| 
--4---5-----------------|--4---5---4--7---5---4--|-------------------------|| 
--4---5---0--2---4---5--|--4---5---4--7---5---4--|--2---4---2--4/5--4---2--|| 
--4---5-----------------|--4---5---4--7---5---4--|-------------------------|| 
 
 
_______________________________________________________ 
Contribuição: Jônatas Figueirêdo([email protected]) 

Compartilhe esta música: novo

QR Code
Copiar