Intro Solo (0:12) 
1|----------------------------------------------------1---- 
2|----------------------2h3--2h3-1------1--1-2h3--1-3---4-- 
3|-3--3-2h3p2-0--0-2--2------------3--3-------------------- 
 
 
1|-3---5-6--5-6-5---------------- 
2|---6------------3--3-4--(4-3)--()=repeat 
 
 
Chorus (1:04)(1:42)(2:40) 
5|-5-0-5-0-3-5 
6|-5-0-5-0-3-5 
 
Bridge (1:49) 
1|-------------------------------------------------------------------------- 
2|-----1-3--1-1-------------------------2h3-3-4-4h6-4-1-3-4-3b-0-1-3-1-1-4-3 
3|-3-3-------3--3-2-3-2-0--0-2-3-3/5-2--------------------------------3----- 
 
Solo (2:19) 
1|-------3-2---2---| 
2|-0-3-4-----4---4-| 
 
 
_______________________________________________________ 
Contribuição: Daron Malakian([email protected]) 

Compartilhe esta música: novo

QR Code
Copiar