Sweet Pea

System Of A Down

Tuning: drop d 
 
this part is all harmonics that is, the intro is all harmonics 
e----------------------------------------------------------------------- 
G-3/7\3----------------3/7\3-------------------------------------------- 
D------3/7\3------3/7\3-----3/7\3------3/7\3---------------------------- 
B-----------3/7\3-----------------3/7\3--------------------------------- 
A----------------------------------------------------------------------- 
D----------------------------------------------------------------------- 
 
chorus and intro 
e----------------------------------------------------------------------- 
G----------------------------------------------------------------------- 
D----------------------------------------------------------------------- 
B----------------------------------------------------------------------- 
A-0000101-0000101-0000101-0000105-0000101-0000101-0000101-00001/12------ 
D-0000101-0000101-0000101-0000105-0000101-0000101-0000101-00001/12------ 
 
verse 
e----------------------------------------------------------------------- 
G---------------10------------------------------------------------------ 
D-----878----87--------------------------------------------------------- 
B-7777---7777----------------------------------------------------------- 
A----------------------------------------------------------------------- 
D----------------------------------------------------------------------- 
 
after the chorus, the cool part: 
e----------------------------------------------------------------------- 
G----------------------------------------------------------------------- 
D-----------------------------------------------------------------54^--- 
B----------------------------------------------------------------------- 
A---------010054-010054-010054-010054-010054-010054-010054-010054------- 
D-010054~-010054-010054-010054-010054-010054-010054-010054-010054------- 
                                      p.m...............................  
some more heavy stuph ^ like right above this then 
the following of christ.... 
e----------------------------------------------------------------------- 
G-----------1010------1010---------------------------------------------- 
D----------------------------------------------------------------------- 
B----77777-------77777-------------------------------------------------- 
A----------------------------------------------------------------------- 
D----------------------------------------------------------------------- 
 
i left out some parts but u can figure it out its easy enuph right? right! 
 
 
/\=slide up or down here, it is meant to be used in harmonics in tha intro 
^=bend 
p.m.=palm mute 
 
================================================================================

Compartilhe esta música: novo

QR Code
Copiar