Suggestions Live

System Of A Down

Tom: C
Tabbed By Jeremy Antoine ([email protected])Any Suggestions 
Tuning C G C F A D 
Please Rate this tab 
Intro- this is the way they did it in Sydney (Big day Out) 
D------------I--------------| 
A----17----17I----17---17---| 
F-------14---I------15------| 
C-14---------I-14-----------| 
G------------I--------------| 
C------------I--------------| 
 This Part 4x then this 4x and repeat however many times 
 
Another intro 
|---7----7-----7----7-----7----7-----7-----7-| 
|------0---------0----------0-----------0----| 
|-9----------9---------9-----------9---------| 
|--------------------------------------------| 
|--------------------------------------------| 
|--------------------------------------------| 
 
|----7----7-----7----7-----7----7------7-----7-| 
|------0----------0----------0------------0----| 
|-10---------10---------10----------10---------| 
|----------------------------------------------| 
|----------------------------------------------| 
|----------------------------------------------| 
 
Another Intro 
   4x         4x 
|---6---6-I--6---6--------------| 
|-----4---I----5----------------| 
|-3-------I-3-------------------| 
|---------I---------------------| 
|---------I---------------------| 
|---------I---------------------| repeat 
 
verse (Slightly Distorted) 
-------------------------------------| 
-------------------------------------| 
-------------------------------------| 
---9---9---9---9?--9---9---9---9---9-| 
-7---7---7?--7---7---8?--8---8---8---| 
-------------------------------------| 
 
Chorus ( Heavy Distortion ) 
 
|-------------------------| 
|-------------------------| 
|-------------------------| 
|-2-2-2-2-2-2-3-3-3-3-3-3-| 
|-2-2-2-2-2-2-3-3-3-3-3-3-| 
|-2-2-2-2-2-2-3-3-3-3-3-3-| 
 
Bridge/Outro 
 
|-----------------------------------------------------------| 
|-----------------------------------------------------------| 
|-8-8--8--8-8-8--8-8--8-8/11-11--11--11-11-11--11-11--11-11-| 
|-----------------------------------------------------------| 
|-6-6--6--6-6-6--6-6--6-6/ 9--9---9---9--9--9---9--9---9--9-| 
|-----------------------------------------------------------| 
 
interlude Palm mute then release and hit cord 1 time listen 
to cd 
|-------------------------------| 
|-------------------------------| 
|-8---------8-------------------| 
|-x-8times--x-one time unmuted--| 
|-6--muted--6-------------------| 
|-------------------------------| 
Sorry It's not in order but its the right way to play it 100% 
Guitartabs.cc

Compartilhe esta música: novo

QR Code
Copiar