Riff 1: 

d|---------| 
A|---------| 
F|---------| 
C|-0-7-6-5-| 
G|-0-7-6-5-| 
C|-0-7-6-5-| 

Riff 2: 

d|----13-13-12-------10\-10\--| 
A|-10----------13-10----------| 
F|----------------------------| 
C|----------------------------| 
G|----------------------------| 
C|----------------------------| (3x) 

d|-------13-13-12-12--------10-10-10-10-10-10-10-10-10-10-10-10-10--10-10-10| 
A|-10-10-------------13--10-10-10-10-10-10-10-10-10-10-10-10-10-10--10-10-10| 
F|--------------------------------------------------------------------------| 
C|--------------------------------------------------------------------------| 
G|--------------------------------------------------------------------------| 
C|--------------------------------------------------------------------------| 

Bride: 

d|---------| 
A|---------| 
F|---------| 
C|-1--1--0-| 
G|-1--1--0-| 
C|-1--1--0-| 

d|-----------------------------------| 
A|-----------------------------------| 
F|-----------------------------------| 
C|-1-x\-0-0-1-0-x\-0-0-1--x\-0-0-1-0-| 
G|-1-x\-0-0-1-0-x\-0-0-1--x\-0-0-1-0-| 
C|-1-x\-0-0-1-0-x\-0-0-1--x\-0-0-1-0-| 

Compartilhe esta música: novo

QR Code
Copiar