Streamline (solo)

System Of A Down

Hey it's my first tab, but I still think it's right. You'll find this song on the  
Scorpion King Sountrack 
 
E-8----10-----11--------13--11--10--11--10--8-------- 
B---8------8------8---------------------------------- 
G---------------------------------------------------- 
D---------------------------------------------------- 
A---------------------------------------------------- 
E---------------------------------------------------- 
 
--8-----10-----11-----13--11--10--11--10--11--------- 
-----8------8------8--------------------------------- 
----------------------------------------------------- 
----------------------------------------------------- 
----------------------------------------------------- 
----------------------------------------------------- 
 
---15------------------------------------------------ 
-------15--16--15--13--15--13------------------------ 
-------------------------------15--------------------  X2 
----------------------------------------------------- 
----------------------------------------------------- 
----------------------------------------------------- 
 
--8-----10-----11-----13--11--10--11--10--11--------- 
-----8------8------8--------------------------------- 
----------------------------------------------------- 
----------------------------------------------------- 
----------------------------------------------------- 
----------------------------------------------------- 
 
---15------------------------------------------------ 
-------15--16--15--13--15--13------------------------ 
-------------------------------15--------------------  X2 
----------------------------------------------------- 
----------------------------------------------------- 
----------------------------------------------------- 
 
PM................................................... 
--15--15--15----------------------------------------- 
--------------15--15--15--16--15--13--15--13--------- 
----------------------------------------------15-----  X4 
----------------------------------------------------- 
----------------------------------------------------- 
----------------------------------------------------- 
 
That's it. What do you think? 

Compartilhe esta música: novo

QR Code
Copiar