Streamline

System Of A Down

 
      Tuning: (high to low) 
1-D 
2-A 
3-F 
4-C 
5-G 
6-C 
 
intro: 
|---------------| 
|---------------| 
|---------------| 
|-0-5-5/7-0-0-3-| 
|---------------| 
|---------------| 
pm. . .   . . . 
 
 
|-------------| 
|-------------| 
|-------------| 
|-5-5-5-5-5-5-| 
|-5-5-5-5-5-5-| 
|-5-5-5-5-5-5-| 
pm. . . . . . 
'i wasnt there for you' 
 
chorus: 
|---------------|------------| 
|---------------|------------| 
|---------------|------------| 
|-0-5-5/7-0-0-3-|--8-8-8-7-5-| 
|-0-5-5/7-0-0-3-|--8-8-8-7-5-| 
|-0-5-5/7-0-0-3-|--8-8-8-7-5-| 
pm. . .   . . .    . . . . . 
                 ^^last time of each bar 
 
 
verse: 
|---------|----------------| 
|-----10--|------11------8-| 
|---7-----|---10-------7---| 
|-0-------|-8--------5-----| 
|---------|----------------| 
|---------|----------------| 
|repeat x6| 
 
 
pre-solo: 
|-------------------------------------------------------| 
|-------------------------------------------------------| 
|-------------------------------------------------------| 
|-5-5-5-5-5-5-7-7-7-7-7-7-8-8-8-8-8-8-12-12-12-12-12-12-| 
|-5-5-5-5-5-5-7-7-7-7-7-7-8-8-8-8-8-8-12-12-12-12-12-12-| 
|-5-5-5-5-5-5-7-7-7-7-7-7-8-8-8-8-8-8-12-12-12-12-12-12-| 
pm. . . . . . . . . . . . . . . . . .  .  .  .  .  .  . 
(note: its over-dubbed here, and guitar 2 comes^ in ^here) 
 
|-------------------| 
|-------------------| 
|-14-14-14-15-12-14-| 
|-------------------| 
|-------------------| 
|-------------------| 
^^guitar 2^^ comes in RIGHT before solo 
 
 
solo: 
|-------------------------------------------------| 
|-15------17------18------20-18-17-18-17h18p17-15-| 
|-----14------14------14--------------------------| 
|-------------------------------------------------| 
|-------------------------------------------------| 
|-------------------------------------------------| 
 
|-------------------------------------------17----------------------| 
|-15------17------18------20-18-17-18-17-18----17-18-17-15-17-15----| 
|-----14------14------14-----------------------------------------17-| 
|-------------------------------------------------------------------| 
|-------------------------------------------------------------------| 
|-------------------------------------------------------------------| 
 
|-17-----------------------------| 
|-----17-18-17h18p17-15-17-15----| 
|-----------------------------17-| 
|--------------------------------| 
|--------------------------------| 
|--------------------------------| 
 
|--------------------------------------------| 
|-15------17------18-------20-18-17-18-17-18-| 
|-----14------14------14---------------------| 
|--------------------------------------------| 
|--------------------------------------------| 
|--------------------------------------------| 
 
|-17-----------------------------|-17-----------------------------| 
|-----17-18-17h18p17-15-17-15----|-----17-18-17h18p17-15-17-15----| 
|-----------------------------17-|-----------------------------17-| 
|--------------------------------|--------------------------------| 
|--------------------------------|--------------------------------| 
|--------------------------------|--------------------------------| 
 
 
pre-chorus: 
|-17-17-17-----------------------------|-------------| 
|----------17-17-17--18-17-15-17-15----|-------------| 
|-----------------------------------17-|-------------| 
|--------------------------------------|-5-5-5-5-5-5-| 
|--------------------------------------|-5-5-5-5-5-5-| 
|--------------------------------------|-5-5-5-5-5-5-| 
pm.  .  .  .  .  .   .  .  .  .  .  .    . . . . . . 
                                         (last time) 
 
(outro:) 
guitar1 
|-------------| 
|-------------| 
|-------------| 
|-5-5-5-5-5-5-| 
|-5-5-5-5-5-5-| 
|-5-5-5-5-5-5-| 
 
guitar 2 
|-------------------------------------------------------------------------| 
|-------------------------------------------------------15-15-15-15-15-15-| 
|-12-12-12-12-12-12-14-14-14-14-14-14-15-15-15-15-15-15-------------------| 
|-------------------------------------------------------------------------| 
|-------------------------------------------------------------------------| 
|-------------------------------------------------------------------------| 
 
(note: i play this part like this rather than have 2 guitars ;) 
|-------------------------------------------------------| 
|-------------------------------------------------------| 
|-------------------------------------------------------| 
|-5-5-5-5-5-5-7-7-7-7-7-7-8-8-8-8-8-8-12-12-12-12-12-12-| 
|-5-5-5-5-5-5-7-7-7-7-7-7-8-8-8-8-8-8-12-12-12-12-12-12-| 
|-5-5-5-5-5-5-7-7-7-7-7-7-8-8-8-8-8-8-12-12-12-12-12-12-| 
pm. . . . . . . . . . . . . . . . . . .  .  .  .  .  .  
 
h - hammer on  
p - pull off  
b - bend string up 
r - release bend 
/ - slide up 
 - slide down 
~ - vibrato 
x - heavy damping (finger muting) 
. - Palm mute 
 
 
_______________________________________________________ 
Contribuição: Francimar Luciano dos Santos([email protected]) 

Compartilhe esta música: novo

QR Code
Copiar