Spiders (intro)

System Of A Down

Tabbed By: Nebuchadnezzar 
 
This is my first tab and it's only the intro of the song. 
 
standard tuning 
 
e----------------------------------------- 
B----------------------------------------- 
G----------------------------------------- 
D----------------------------------------- 
A---9--9--9--7--7--7--9--9--9--7--7--7---- 
E-0--0--0--0--0--0--0--0--0--0--0--0------ 
 
e---------------------------------------- 
B---------------------------------------- 
G---------------------------------------- 
D---------------------------------------- 
A----12--10--13--12--10-12--------------- 
E--0---0---0----0--0--------------------- 
 
e---------------------------------------- 
B---------------------------------------- 
G---------------------------------------- 
D---------------------------------------- 
A----9---9---9---7---7---7--------------- 
E--0---0---0---0---0---0----------------- 
 
Any problems or suggestions email me at [email protected]

Compartilhe esta música: novo

QR Code
Copiar