Soldierside

System Of A Down

Tom: Db
Afinação: Db Ab Db Gb Bb Eb 
Legend: / - slide up 
         - slide down 
       () - harmonics 
        x - mute   
Intro 
Eb|------------------------------------------------------------------------------| 
Bb|----------------------------------------------------------------2---2-3-3/5-5-| 
Gb|-2---2-3-2-1---------3-5-5/75-3-2-2-----1------1-------1---------------------| 
Db|-0---------0-----------------------------0----------2---------2---2-----------| 
Ab|-0---------0-----------------------------0------------------0-----------------| 
Db|-3-3-------2-2---2/5--------------0--0-0-2----2---2---2---2-------------------| 
                                  
Verse 
Eb|----------------------------------------------------------------| 
Bb|--------------------------------------------------2---2-3-3/5-5-| 
Gb|-----2-----1--------3-------2-----1-------1---------2-----------| 
Db|------------------------------0-------2---------2---------------| x2 
Ab|----------------------------------------------0-----------------| 
Db|-0-3---3-2----2-2/5---5-5 
 
 

Compartilhe esta música: novo

QR Code
Copiar