Soldier Side - Mezmerize

System Of A Down

Tom: C#
Soldier Side ? Intro 
System Of A Down 
MEZMERIZE - 2005 
 
Afinação: C# G# C# F# Bb Eb 
 
Intro 
|--------------------------------------------------------------| 
|--------------------------------------------------------------| 
|-2---2-3-2-1---1-------3-5-5/7\5-3-2---2----1---1-------1-----| 
|-0---------2--------------------------------2-------2---------| 
|-0---------2--------------------------------2-----------------| 
|-3-3-------2-2---2/--5---------------0---0--2-2---2---2---2---| 
 
                       |Aqui, tocar com vocal: 
|----------------------|--------------------------------------------| 
|------2---2-3-3/5-5---|--------------------------------------------| 
|----------------------|---2-----1------3------2------1-------1-----| 
|----2---2-------------|-------------------------0--------2---------| 
|-0--------------------|--------------------------------------------| 
|--------------------0-|-3---3-2---2--5---5\0-------2---2---2---2---| 
 
|-------------------------------------------------------------------| 
|-----2---2-3-3/5-5-------------------------------------------------| 
|------------------------2-----1------3-----2--------1-------1------| 
|---2---2-------------------------------------0----------2----------| 
|-0-----------------------------------------------------------------| 
|-------------------0--3---3-2---2--5---5\0-----0--2---2---2---2----| 
 
|-------------------------| 
|-----2---2-3-3/5-5-------| 
|-------------------------| 
|---2---2-----------------| 
|-0-----------------------| 
|-------------------0-----| 
Final: ( O mesmo usado na Soldier Side do Hypnotize) 
|----------------------------------------------------------| 
|-10---10-11-10--9---9------11/13-13/15\13-11-10---10------| 
|-7--------------9-----------------------------------------| 
|-7--------------9-----------------------------------------| 
|---8--------------7---7/10----------------------8----8----| 
|----------------------------------------------------------| 
 
|----------------------------------| 
|-9---9-------9---------------10---| 
|-9-------9-------------9----------| 
|-9------------------7-----7-------| 
|-7-7---7---7---7------------------| 
|------------------7---------------| 
 
 

Compartilhe esta música: novo

QR Code
Copiar