Soldier side - Hypnotize

System Of A Down

Tom: Db
Soldier Side-Hypnotize 
 
 
 
Afinação: Db Ab Db Gb Bb Eb 
 
 
 
Intro ____________________________________________________________________ 
 
 
(Limpo) 
|--------------------------------------------------------------------------------- 
|--------------------------------------------------------------------------------- 
|-------12--------12--------12--------12--------10--------10--------10--------10-- 
|-----0----0----0----0----0----0----0----0----0----0----0----0----0----0----0----0 
|--13--------13--------13--------13--------12--------12--------12--------12------- 
|--------------------------------------------------------------------------------- 
 
 
|----------------------------------------------------------------------------- 
|----------------------------------------------------------------------------- 
|-------9--------9--------9--------9--------10--------10--------10--------10-- 
|-----0---0----0---0----0---0----0---0----0----0----0----0----0----0----0----0 
|--12-------12-------12-------12-------12--------12--------12--------12------- 
|----------------------------------------------------------------------------- 
 
 
|---------------------------------------------------------------------------- 
|---------------------------------------------------------------------------- 
|-------12------15--------15------14-12------10------12--------12--------10-- 
|-----0----0-------0----0----0-------------0----0-------0----0----0----0----0 
|--13--------13------13--------13-------12--------12------12--------12------- 
|---------------------------------------------------------------------------- 
 
 
|----------------------------------------------------------------------------- 
|----------------------------------------------------------------------------- 
|-------9--------9--------9--------9--------10--------10--------10--------10-- 
|-----0---0----0---0----0---0----0---0----0----0----0----0----0----0----0----0 
|--12-------12-------12-------12-------12--------12--------12--------12------- 
|----------------------------------------------------------------------------- 
 
 
Versos __________________________________________________________________ 
 
 
(Distorção)  
|--------------------------------------- 
|--------------------------------------- 
|----------------3-5---------------3-5-- 
|--5----3-2-0----3-5-5----3-2-0----3-5-- 
|--5----3-2-0----1-3-5----3-2-0----1-3-- 
|--5----3-2-0--------5----3-2-0--------- 
 
(Limpo) 
|--13-13-13-13-13-13-17-15-13-13-13-13-13-13-13-13 
|--15-15-15-15-15-15-18-17-15-15-15-15-15-15-15-15 
|--15-15-15-15-15-15-------14-14-14-14-14-14-14-14    2X 
|------------------------------------------------- 
|------------------------------------------------- 
|------------------------------------------------- 
 
 
|--18-18-18-18--17-17-17-17--15-15-15-15--17-17-17-17 
|--20-20-20-20--18-18-18-18--17-17-17-17--18-18-18-18 
|----------------------------------------------------    2X 
|---------------------------------------------------- 
|---------------------------------------------------- 
|---------------------------------------------------- 
 
 
Solo _____________________________________________________________________ 
 
 
Ritmo do solo(Distorção) 
|----------------------------------- 
|----------------------------------- 
|-----------------------------------     2X 
|--5-5-5-3-2-0-0-0-0-7-7-7-7-0-2-3-2 
|--5-5-5-3-2-0-0-0-0-7-7-7-7-0-2-3-2 
|--5-5-5-3-2-0-0-0-0-7-7-7-7-0-2-3-2 
 
 
Solo  Repetir 2X 
|---------------------------------------------------------------------------- 
|--11---10-11-13-11-10-11--10-11-10------10-11-10------8-10-8------8-10-8---- 
|---------------------------------------------------------------------------- 
|-----------------------------------12------------12----------11----------11- 
|---------------------------------------------------------------------------- 
|---------------------------------------------------------------------------- 
 
|---------------------- 
|---------------------- 
|-----------9--10--12-- 
|--9-11-12------------- 
|---------------------- 
|---------------------- 
Ritmo do Solo da guitarra II (Segunda vez apenas) 
|--18-18-18-18--17-17-17-17--15-15-15-15--17-17-17-17 
|--20-20-20-20--18-18-18-18--17-17-17-17--18-18-18-18 
|---------------------------------------------------- 
|---------------------------------------------------- 
|---------------------------------------------------- 
|---------------------------------------------------- 
 
 
Soldier Side __________________________________________________________ 
 
 
(Distorção) 
|------------------------------------ 
|------------------------------------ 
|------------------------------------    4X 
|--3-3-2-2-5-5-0-0-2-2-2-2-7-7-7-7--- 
|--3-3-2-2-5-5-0-0-2-2-2-2-7-7-7-7--- 
|--3-3-2-2-5-5-0-0-2-2-2-2-7-7-7-7--- 
 
(Limpo)  ültimas três vezes 
|--17-17--16-16--18-18--17-17--16-16-16-16--21-21-21-21 
|--18-18--17-17--20-20--18-18--17-17-17-17--22-22-22-22 
|------------------------------------------------------ 
|------------------------------------------------------ 
|------------------------------------------------------ 
|------------------------------------------------------ 
 
 
Finalização ____________________________________________________________________ 
 
 
|--------------------------------------------------------------------------------- 
|--10---10-11-10-9---9--------11/13-13/15/13-11-10--10--9---9------9-----------10- 
|----------------x------------12/14-14/15/14-12-10------x-------9---------9------- 
|---------------------------------------------------------------------------7----- 
|-----8------------7---7-7/10---------------------8---8---7-------------7--------- 
|---------------------------------------------------------------------7----------- 
 
 
 
[email protected] 
 

Compartilhe esta música: novo

QR Code
Copiar