Snowblind (Black Sabbath Cover)

System Of A Down

Riff 1 
  
e|-----------------------------------------------------------------------------| 
B|-----------------------------------------------------------------------------| 
G|-----------------------------------------------------------------------------| Palhetada  
D|-4-4-4-4?6-6-6-6?7-7-7-7?6-6-6-6?2-2-2-2-2-2-2?4-4-4-4-4-4-4---77777-99999---| Rápida 
A|---------------------------------------------------------------77777-99999---|  
D|---------------------------------------------------------------77777-99999---| 
Pm . . . . . . . . . . . . . . . . . . . . . . . . . . . . . . 
 
Riff 2  
 
e|-----------------------------------------------------------------------------| 
B|-----6-7-6---------------6---------------------------------------------------| 
G|---6-------------------6---4-6-----------------------------------------------| 
D|------------99999---------------99999----------------------------------------| 
A|------------99999---------------99999----------------------------------------| 
D|------------99999---------------99999----------------------------------------| 
 
Riff 3 
 
e|-----------------------------------------------------------------------------| 
B|-----------------------------------------------------------------------------| 
G|-----------------------------------------------------------------------------| 
D|--11-9-8-4-6-7-9-------------------------------------------------------------| 
A|--11-9-8-4-6-7-9-------------------------------------------------------------| 
D|--11-9-8-4-6-7-9-------------------------------------------------------------| 
 
Riff 4 
 
e|-----------------------------------------------------------------------------| 
B|------5-5-5-5-5-6-5---4-4-4-4-4-5-4------------------------------------------| 
G|------------------------------------6-6-6-6-6-8-6----5-5-5-5-5-6-5-----------| 
D|-----------------------------------------------------------------------------| 
A|-----------------------------------------------------------------------------| 
D|-----------------------------------------------------------------------------| 
 
Esse riff acima faça meio abafado... 
 
Riff 5  
 
e|-----------------------------------------------------------------------------| 
B|-----------------------------------------------------------------------------| 
G|-----------------------------------------------------------------------------| 
D|-|666666666666666---44--|---------666666666666666----44--44--44--------------| 
A|-|444444444444444---22--|-2x------444444444444444----22--22--22--------------| 
D|-----------------------------------------------------------------------------| 
 
 
  
 
Intro ? Riff 1 ? 2x 
 
Riff 2 
What you get and what you see? 
Things that don't come easily 
Feeling happy in my vein 
Icicles within my brain 
(Cocaine) 
 
Riff 3 ? 2x 
Riff 1 ? 2x 
 
Riff 2 
Something blowing in my head 
Winter's ice, it soon will spread 
Death would freeze my very soul 
Makes me happy, makes me cold 
(Cocaine) 
 
Riff 4 
My eyes are blind but I can see 
The snowflakes glisten on the tree 
The sun no longer sets me free 
I feel there's no place freezing me 
 
Riff 5 
Don't you think I know what I'm doing? 
Don't tell me that it's doing me wrong 
You're the one that?s really a loser 
This is where I feel I belong 
 
Riff 3 ? 2x 
Riff 1 ? 2x 
 
Riff 2 
Crystal world with winter flowers 
Turns my day to frozen hours 
Lying snowblind in the sun 
Will my ice age ever come? 
(Cocaine) 
 
Riff 3 ? 2x 
Riff 1 ? 2x 
 
Riff 4 
My eyes are blind but I can see 
The snowflakes glisten on the tree 
The sun no longer sets me free 
I feel there's no place freezing me 
 
_______________________________________________________ 
Contribuição: Braz Torres Neme([email protected]) 

Compartilhe esta música: novo

QR Code
Copiar