Snowblind

System Of A Down

Tom: D
Tune to drop D, then a step down (Drop C) 
 
h-harmonic 
PM-palm mute 
 
Intro: 
 
{______________PM_____________} 
|--------------------------------------------------- 
|--------------------------------------------------- 
|-------------------------------333333-555555------- 
|-00000-22222-333333-------000--333333-555555------- 
|--------------------33333------111111-333333------- 
|--------------------------------------------------- 
 
Riff B (Verse)   
 The pinch harmonics aren't exact and they're pretty random. 
 
   |--- P.H.---| |------P.M.----| 
D|------------------------------------------ 
A|------------------------------------------ 
E|------------------------------------------ 
C|------------------------------0----------- 
G|--5-5--5-3-5----3-3-3-3-3-3-3------------- 
C|------------------------------------------ 
 'What you get is what you see....' 
 
Riff C 
D|---------------------------------------------------------- 
A|---------------------------------------------------------- 
E|---------------------------------------------------------- 
C|---------------------------------------------------------- 
G|------------12--10-9-5-7--8-8-8-8-8-8--10--10-10-10-10-10- 
C|------------12--10-9-5-7--8-8-8-8-8-8--10--10-10-10-10-10- 
'Cocaine!!' 
 then the first part 
{______________PM_____________} 
|--------------------------------------------------- 
|--------------------------------------------------- 
|-------------------------------333333-555555------- 
|-00000-22222-333333-------000--333333-555555------- 
|--------------------33333------111111-333333------- 
|--------------------------------------------------- 
 
Repeat the above twice and then this slow part comes up: 
 
 {________________________________PM_______________________________} 
|--------------------------------------------------------------------- 
|---8-7-8-7-8-7-7----6-5-6-5-6-5-5----4-3-4-3-4-3-3----3-2-3-2-3-2-2-- 
|--7------7-----7---5------5-----5---3------3-----3---2------2-----2-- 
|-7----------------5----------------3----------------2---------------- 
|--------------------------------------------------------------------- 
|--------------------------------------------------------------------- 
 
(Bass Solo)(2x) 
G)-------------------------------------- 
D)-------------------------------------- 
A)-3-3-6-3-6-3--3-6-3-6-3-3-6-3-6-3----- 
E)----------------------------------666- 
 
(Heavy Part)(6x) 
G)---------------------------------------- 
D)---------------------------------------- 
A)--3-3-6-3-6-3----3-6-3-6-3-6-3---------- 
E)----------------------------------666--- 
 
This is the hard part after the slow part: 
 
  {_____________________________PM____________________________} 
|--------------------------------------------------------------------- 
|--------------------------------------------------------------------- 
|---------------------------------------------------------------5-5-5- 
|-0-0-3-3-3-0-0-3-3-3-0-0-3-3-3-0-0-3-3-3-0-0-3-3-3-0-0-3-3-3-0-5-5-5- 
|-0-0-3-3-3-0-0-3-3-3-0-0-3-3-3-0-0-3-3-3-0-0-3-3-3-0-0-3-3-3-0-3-3-3- 
|-0-0-3-3-3-0-0-3-3-3-0-0-3-3-3-0-0-3-3-3-0-0-3-3-3-0-0-3-3-3-0------- 
 
and thats all  
enjoy this is all accurate  
no mistakes 
[email protected]

Compartilhe esta música: novo

QR Code
Copiar