INTRO (Repete Várias Vezes) : 
E|--------------------------------------------------------------------------------- 
B|--------------------------------------------------------------------------------- 
D|--------------------------------------------------------------------------------- 
B|--------------------------------------------------------------------------------- 
F|--------------------------------------------------------------------------------- 
G|--3---2----0---2----3----2----0----2---3----2----0------------------------ 
 
4X (VEZES) 
E|--------------------------------------------------------------------------------- 
B|--------------------------------------------------------------------------------- 
D|--------------------------------------------------------------------------------- 
B|--------------------------------------------------------------------------------- 
F|----4---4---4---4---4------------8---8---8---8---8----------------------------------------- 
G|----2---2---2---2---2------------6---6---6---6---6---------------------------------------- 
 
CHORUS: 
E|--------------------------------------------------------------------------------- 
B|--------------------------------------------------------------------------------- 
D|--------------------------------------------------------------------------------- 
B|--------------------------------------------------------------------------------- 
F|--------------------------------------------------------------------------------- 
G|-3---2---0---2---3---2---0---2---3---2---0--2---3---2---0--2------------------------------------- 
 
E|--------------------------------------------------------------------------------- 
B|--------------------------------------------------------------------------------- 
D|--------------------------------------------------------------------------------- 
B|---3----4----3----1------------------------------------------------------------------ 
F|----------------------------5----4----2----1---------------------------------------- 
G|--------------------------------------------------------------------------------- 
CHORUS: 
E|--------------------------------------------------------------------------------- 
B|--------------------------------------------------------------------------------- 
D|--------------------------------------------------------------------------------- 
B|--------------------------------------------------------------------------------- 
F|--------------------------------------------------------------------------------- 
G|-3---2---0---2---3---2---0---2---3---2---0--2---3---2---0--2------------------------------------- 
 
E|--------------------------------------------------------------------------------- 
B|--------------------------------------------------------------------------------- 
D|--------------4-----5-----------4----5----4---------1----0------------------------------- 
B|--3---4---------------------------------------------------------------------------- 
F|--------------------------------------------------------------------------------- 
G|--------------------------------------------------------------------------------- 
 
CHORUS: 
E|--------------------------------------------------------------------------------- 
B|--------------------------------------------------------------------------------- 
D|--------------------------------------------------------------------------------- 
B|--------------------------------------------------------------------------------- 
F|--------------------------------------------------------------------------------- 
G|-3---2---0---2---3---2---0---2---3---2---0--2---3---2---0--2------------------------------------- 
 
E|--------------------------------------------------------------------------------- 
B|--------------------------------------------------------------------------------- 
D|--------------------------------------------------------------------------------- 
B|---3----4------------3-----1--------------------------------------------------------- 
F|----------------------------------------5-----4-----------2-----1-------------------- 
G|--------------------------------------------------------------------------------- 
 
CHORUS: 
E|--------------------------------------------------------------------------------- 
B|--------------------------------------------------------------------------------- 
D|--------------------------------------------------------------------------------- 
B|--------------------------------------------------------------------------------- 
F|--------------------------------------------------------------------------------- 
G|-3---2---0---2---3---2---0---2---3---2---0--2---3---2---0--2------------------------------------- 
 
 
 
 
 
E|--------------------------------------------------------------------------------- 
B|--------------------------------------------------------------------------------- 
D|-----------------4-----5----4-------1---0------1----0----------------------------------- 
B|--3-----4-----------------------------------------------------1---0------------0------- 
F|---------------------------------------------------------------------------4---------------4----2---0------- 
G|--------------------------------------------------------------------------------- 
 
4X (VEZES) 
E|--------------------------------------------------------------------------------- 
B|--------------------------------------------------------------------------------- 
D|--------------------------------------------------------------------------------- 
B|--------------------------------------------------------------------------------- 
F|---4---4---------8----8-------------------------------------------------------------- 
G|---2---2--------6----6--------------------------------------------------------------- 
 
CHORUS: 
E|--------------------------------------------------------------------------------- 
B|--------------------------------------------------------------------------------- 
D|--------------------------------------------------------------------------------- 
B|--------------------------------------------------------------------------------- 
F|--------------------------------------------------------------------------------- 
G|-3---2---0---2---3---2---0---2---3---2---0--2---3---2---0--2------------------------------------- 
 
E|--------------------------------------------------------------------------------- 
B|--------------------------------------------------------------------------------- 
D|--------------------------------------------------------------------------------- 
B|--3---4---------3----1------------------------------------------------------------- 
F|---------------------------------------5-----4-----------2----1---------------------- 
G|--------------------------------------------------------------------------------- 
 
CHORUS: 
E|--------------------------------------------------------------------------------- 
B|--------------------------------------------------------------------------------- 
D|--------------------------------------------------------------------------------- 
B|--------------------------------------------------------------------------------- 
F|--------------------------------------------------------------------------------- 
G|-3---2---0---2---3---2---0---2---3---2---0--2---3---2---0--2------------------------------------- 
 
 
 
 
E|--------------------------------------------------------------------------------- 
B|--------------------------------------------------------------------------------- 
D|--------------4-----5-----------4----5----4---------1----0------------------------------- 
B|--3---4---------------------------------------------------------------------------- 
F|--------------------------------------------------------------------------------- 
G|--------------------------------------------------------------------------------- 
 
CHORUS: 
E|--------------------------------------------------------------------------------- 
B|--------------------------------------------------------------------------------- 
D|--------------------------------------------------------------------------------- 
B|--------------------------------------------------------------------------------- 
F|--------------------------------------------------------------------------------- 
G|-3---2---0---2---3---2---0---2---3---2---0--2---3---2---0--2------------------------------------- 
 
E|--------------------------------------------------------------------------------- 
B|--------------------------------------------------------------------------------- 
D|--------------------------------------------------------------------------------- 
B|--3---4---------3----1------------------------------------------------------------- 
F|---------------------------------------5-----4-----------2----1---------------------- 
G|--------------------------------------------------------------------------------- 
 
CHORUS: 
E|--------------------------------------------------------------------------------- 
B|--------------------------------------------------------------------------------- 
D|--------------------------------------------------------------------------------- 
B|--------------------------------------------------------------------------------- 
F|--------------------------------------------------------------------------------- 
G|-3---2---0---2---3---2---0---2---3---2---0--2---3---2---0--2------------------------------------- 
 
E|--------------------------------------------------------------------------------- 
B|--------------------------------------------------------------------------------- 
D|-----------------4-----5----4-------1---0------1----0----------------------------------- 
B|--3-----4-----------------------------------------------------1---0------------0------- 
F|---------------------------------------------------------------------------4---------------4----2---0------- 
G|--------------------------------------------------------------------------------- 
 
 
 
 
 
8X (VEZES) 
E|--------------------------------------------------------------------------------- 
B|--------------------------------------------------------------------------------- 
D|--------------------------------------------------------------------------------- 
B|--------------------------------------------------------------------------------- 
F|---4---4---------8----8-------------------------------------------------------------- 
G|---2---2--------6----6--------------------------------------------------------------- 
 
12X (VEZES) 
E|--------------------------------------------------------------------------------- 
B|--------------------------------------------------------------------------------- 
D|--------------------------------------------------------------------------------- 
B|--------------------------------------------------------------------------------- 
F|---4------------------------------------------------------------------------------ 
G|---2------------------------------------------------------------------------------ 
 
6X (VEZES) 
E|--------------------------------------------------------------------------------- 
B|--------------------------------------------------------------------------------- 
D|--------------------------------------------------------------------------------- 
B|--3---4---------3----1------------------------------------------------------------- 
F|---------------------------------------5-----4-----------2----1---------------------- 
G|--------------------------------------------------------------------------------- 
 
CHORUS: 
E|--------------------------------------------------------------------------------- 
B|--------------------------------------------------------------------------------- 
D|--------------------------------------------------------------------------------- 
B|--------------------------------------------------------------------------------- 
F|--------------------------------------------------------------------------------- 
G|-3---2---0---2---3---2---0---2---3---2---0--2---3---2---0--2------------------------------------- 
 
THE END 
 
 
 
 
Letra: 
 
Education, fornication, in you are, Go, 
Education, subjugation, now you're out, Go, 
Education, fornication, in you are, Go, 
Don't be late for school again boy 
 
I think me, I want life, 
I think me, I want a house and a wife, 
I want to shimmy- shimmy- shimmy through the break of dawn, yeah. 
 
Education, fornication, in you are, Go, 
Education, subjugation, now you're out, Go, 
Education, fornication, in you are, Go, 
Don't be late for school again girl 
 
I think me, I want life, 
I think me, I want a house and a wife, 
I want to shimmy- shimmy- shimmy through the break of dawn, yeah. 
I think me, I want life, 
I think me, I want a house and a wife, 
I want to shimmy- shimmy- shimmy through the break of dawn, yeah. 
 
Indoctrination, of a nation, 
Indoctrination of a nation, 
Subjugation of damnation, 
Subjugation of damna? 
 
Don't be late for school again boy, 
Don't be late for school again girl, 
Don't be late for school again boy, 
Don't be late for school again girl. 
 

Compartilhe esta música: novo

QR Code
Copiar