RIFF 1: (Intro/Later Verse) 
 
    |-----10---10----10----10---11----------| 
    |--------------10----10-----------------| 
    |---------------------------------------| 
    |---------------------------------------| 
    |---------------------------------------| 
    |---------------------------------------| 
 
     RIFF 2: (Verse) 
 
    |----------------------------|------------------| 
    |----------------------------|------------------| 
    |----------------------------|------------------| 
    |--------0-1-0-0-0-----------|-----0-0-0-0------| 
    |--------0-1-0-0-0-----------|-----0-0-0-0------| 
    |--------0-1-0-0-0-----------|-----0-0-0-0------| 
 
     RIFF 3: (End First Verse) 
 
    |--------10---10---10---10---11---------| 
    |--------10---10---10---10--------------| 
    |---------------------------------------| 
    |---------------------------------------| 
    |---------------------------------------| 
    |---------------------------------------| 
 
     RIFF 4: (Chorus) 
 
    |-----------------------------| 
    |-----------------------------| 
    |-----------------------------| 
    |------0---0---0---0-1--------| 
    |------0---0---0---0-1--------| 
    |------0---0---0---0-1--------| 
 
     RIFF 5: (Interlude) 
 
    |-------------------------------------------------------------------------------| 
    |-------------------------------------------------------------------------------| 
    |-------------------------------------------------------------------------------| 
    |---1414141414141414---1515151515151515---1717171717171717---1919191919191919---| 
    |---1212121212121212---1313131313131313---1515151515151515---1717171717171717---| 
    |-------------------------------------------------------------------------------| 
 
 
 
_______________________________________________________ 
Contribuição: Daron Malakian([email protected]) 

Compartilhe esta música: novo

QR Code
Copiar