Send The Children To The Desert

System Of A Down

Tom: C
 
tuning is in Drop C  (C G C F A D) 
 
 
D|-12-10----12-10----12-10----12-12-10----12-12-10---10-10--12--12--13 
A|-------------------------------------------------------------------- 
F|-------------------------------------------------------------------- 
C|-------------------------------------------------------------------- 
G|-------------------------------------------------------------------- 
C|-------------------------------------------------------------------- 
 
D|-13--16--16--12--12--13--13--16-17-19-17-16-17-16--12--12--13--13-16 
A|-------------------------------------------------------------------- 
F|-------------------------------------------------------------------- 
C|-------------------------------------------------------------------- 
G|-------------------------------------------------------------------- 
C|-------------------------------------------------------------------- 
 
D|---16-17-19-17-16---12--12--13--13---16-------------16-16-16-16^-17- 
A|-------------------------------------------------------------------- 
F|-------------------------------------------------------------------- 
C|-------------------------------------------------------------------- 
G|-------------------------------------------------------------------- 
C|-------------------------------------------------------------------- 
 
D|17-17-17-17-17-17-17-17-17-19-19-19-19-19-19-19-17-17-17-17-17-16-16 
A|-------------------------------------------------------------------- 
F|-------------------------------------------------------------------- 
C|-------------------------------------------------------------------- 
G|-------------------------------------------------------------------- 
C|-------------------------------------------------------------------- 
 
D|-16-16-16-16-16-16-16-16-16----------------------------------------- 
A|-------------------------------------------------------------------- 
F|-------------------------------------------------------------------- 
C|-------------------------------------------------------------------- 
G|-------------------------------------------------------------------- 
C|-------------------------------------------------------------------- 
 
 
_______________________________________________________ 
Contribuição: Daron Malakian([email protected]) 

Compartilhe esta música: novo

QR Code
Copiar