Roullete (solo)

System Of A Down

 
Solo Final (2x) 
E|----8--8-10-11--10-11-13--10-11-13-11-10----10-11-10---------- 
B|-----------------------------------------13----------13-13-8-8 
G|-------------------------------------------------------------- 
D|-------------------------------------------------------------- 
 
E|--------------------------------------------------| 
B|8-9-11-9-8----8-9-8-------------------------------| 
G|-----------10-------10-10--------8h10-8-8-7-7-5-5-| 
D|--------------------------8-8---------------------| 
 
Esse solo eh tocado no fim da musica, o cara toca duas vezes. 

Compartilhe esta música: novo

QR Code
Copiar