Roullete

System Of A Down

 
Tabbed by: --=(«Þåµ£ø»)=-- [email protected] 
 
 
  VERSE 1 
D|-----------------------------------------------------------------------------------------| 
A|-----------------------------------------------------------------------------------------| 
F|-----10---------10----------14----------9----------12---------12----------7---------9----| 
C|-12-----12---12----12---15-----15---10----10---13-----13---13----13----8----8---10----10-| 
G|-----------------------------------------------------------------------------------------| 
C|-----------------------------------------------------------------------------------------| 
Play^ 4 times total then... 
 
 
  VERSE 2 
D|------------------------------------------------------------------| 
A|------------------------------------------------------------------| 
F|-----10---------10----------9---------9----------12---------12----| 
C|-12-----12---12----12---10----10---10---10---13-----13---13----13-| 
G|------------------------------------------------------------------| 
C|------------------------------------------------------------------| 
Play^ 2 times total then... 
 
  VERSE 1 
D|-----------------------------------------------------------------------------------------| 
A|-----------------------------------------------------------------------------------------| 
F|-----10---------10----------14----------9----------12---------12----------7---------9----| 
C|-12-----12---12----12---15-----15---10----10---13-----13---13----13----8----8---10----10-| 
G|-----------------------------------------------------------------------------------------| 
C|-----------------------------------------------------------------------------------------| 
Play^ 4 times total then... 
 
  VERSE 2 
D|------------------------------------------------------------------| 
A|------------------------------------------------------------------| 
F|-----10---------10----------9---------9----------12---------12----| 
C|-12-----12---12----12---10----10---10---10---13-----13---13----13-| 
G|------------------------------------------------------------------| 
C|------------------------------------------------------------------| 
Play^ 4 times total then... 
 
  SOLO 
D|-10---10-12-13---12-14-15---12-14-15-14-12-10---12-13-12-10-| 
A|------------------------------------------------------------| 
F|------------------------------------------------------------| 
C|------------------------------------------------------------| 
G|------------------------------------------------------------| 
C|------------------------------------------------------------| 
 
D|-10----------------------------------------| 
A|-----10-10---10-12-13-12-10-8---10-11-10-8-| 
F|-------------------------------------------| 
C|-------------------------------------------| 
G|-------------------------------------------| 
C|-------------------------------------------| 
 
D|--------------------------------| 
A|-8--------53---31---1--------| 
F|----5-5---53---31---15---53-| 
C|-----------------------4---42-| 
G|--------------------------------| 
C|--------------------------------| 
Play ALL of the ENTIRE solo 2 times then... 
 
  VERSE 2 
D|------------------------------------------------------------------| 
A|------------------------------------------------------------------| 
F|-----10---------10----------9---------9----------12---------12----| 
C|-12-----12---12----12---10----10---10---10---13-----13---13----13-| 
G|------------------------------------------------------------------| 
C|------------------------------------------------------------------| 
Play^ 4 times total then... 
 
  VERSE 1 
D|-----------------------------------------------------------------------------------------| 
A|-----------------------------------------------------------------------------------------| 
F|-----10---------10----------14----------9----------12---------12----------7---------9----| 
C|-12-----12---12----12---15-----15---10----10---13-----13---13----13----8----8---10----10-| 
G|-----------------------------------------------------------------------------------------| 
C|-----------------------------------------------------------------------------------------| 
Play^ 4 times total then end the song with... 
 
  ENDING NOTE (LET RING) 
D|----| 
A|----| 
F|-10-| 
C|-12-| 
G|----| 
C|----| 
 
 
 
_______________________________________________________ 
Contribuição: --=(«Þåµ£ø»)=--([email protected]) 

Compartilhe esta música: novo

QR Code
Copiar