Roulette (padrão)

System Of A Down

 
 
Intro: 
e------------------------------------------------------------------------------  
b----4-----4-------8-----------------------------------------------------------  
g------------------------7-------10-----10-----5-------7----------------------- 
d------------------------------------------------------------------------------ 
a--3---3-3---3/6-6-------------------------------------------------------------  
e--------------------3-6---6/9-9----9-9----3-4---4-4/6---6--------------------- 
 
 
e------------------------------------------------------------------------------ 
b------4-----4-------8--------------------------------------------------------- 
g--------------------------7-------10-----10-----5-------7--------------------- 
d------------------------------------------------------------------------------ 
a-0/3----3-3---3/6-6-----------------------------------------------------------  
e----------------------3-6---6/9-9----9-9----3-4---4-4/6---6------------------- 
 
 
2x 
e------------------------------------------------------------------------------  
b----4-----4-------8-----------------------------------------------------------  
g------------------------7-------10-----10-----5-------7----------------------- 
d------------------------------------------------------------------------------ 
a--3---3-3---3/6-6-------------------------------------------------------------  
e--------------------3-6---6/9-9----9-9----3-4---4-4/6---6--------------------- 
 
 
2x 
e------------------------------------------------------------------------------  
b----4-----4-------------------------------------------------------------------  
g----------------4-----4-------7-----7-----5-------7--------------------------- 
d------------------------------------------------------------------------------ 
a--3---3-3---3-----------------------------------------------------------------  
e--------------3---3-3---3/6-6---6-6---3-4---4-4/6---6------------------------- 
 
 
 
e------------------------------------------------------------------------------- 
b----4-----4-------8------------------------------------------------------------ 
g------------------------7-------10-----10-----5-------7------------------------ 
d------------------------------------------------------------------------------- 
a--3---3-3---3/6-6-------------------------------------------------------------- 
e--------------------3-6---6/9-9----9-9----3-4---4-4/6---6---------------------- 
 
 
 
e------------------------------------------------------------------------------- 
b------4-----4-------8---------------------------------------------------------- 
g--------------------------7-------10-----10-----5-------7---------------------- 
d------------------------------------------------------------------------------- 
a-0/3----3-3---3/6-6------------------------------------------------------------ 
e----------------------3-6---6/9-9----9-9----3-4---4-4/6---6-------------------- 
 
 
2x 
e------------------------------------------------------------------------------ 
b----4-----4-------8----------------------------------------------------------- 
g------------------------7-------10-----10-----5-------7----------------------- 
d------------------------------------------------------------------------------ 
a--3---3-3---3/6-6-------------------------------------------------------------  
e--------------------3-6---6/9-9----9-9----3-4---4-4/6---6--------------------- 
 
 
4x 
e------------------------------------------------------------------------------- 
b----4-----4-------------------------------------------------------------------- 
g----------------4-----4-------7-----7-----5-------7---------------------------- 
d------------------------------------------------------------------------------- 
a--3---3-3---3------------------------------------------------------------------ 
e--------------3---3-3---3/6-6---6-6---3-4---4-4/6---6-------------------------- 
 
 
 
Solo: 
1st guitar Repeat solo 2x    
e-----------10-11----10-11-13---10-11-13-11-10/8-10-11-10---------------------- 
b--13----13-----------------------------------------------13-13---------------- 
g---------------------------------------------------------------12-12---------- 
d------------------------------------------------------------------------------ 
a------------------------------------------------------------------------------  
e------------------------------------------------------------------------------   
 
2nd guitar solo 
this is played during the second solo piece 
e--11----10-11-13----------16---15-16-18-16-15-13-15-16-15-13-13-11-11-------- 
b-----------------------------------------------------------------------------  
g----------------------------------------------------------------------------- 
d-----------------------------------------------------------------------------   
a-----------------------------------------------------------------------------   
e-----------------------------------------------------------------------------   
 
1st  
------------------------------------------------------------------------------  
---------------------------------------8/10-8-8-6-6-4-4-----------------------  
--12-13-15-13-12/10-12-13-12-10-10-----8/10-8-8-7-7-5-5/----------------------  
-----------------------------------8-8----------------------------------------  
------------------------------------------------------------------------------   
------------------------------------------------------------------------------   
 
2nd guitar solo 
Continue......... 
--10-11-13-11-10-8-10-11-10-8-8-----13-11-11-10-10-8-8------------------------  
------------------------------------13-13-13-11-11-9-9------------------------  
--------------------------------12--------------------------------------------   
------------------------------------------------------------------------------  
------------------------------------------------------------------------------  
------------------------------------------------------------------------------   
 
 
 
4x 
e------------------------------------------------------------------------------  
b----4-----4-------------------------------------------------------------------  
g----------------4-----4-------7-----7-----5-------7--------------------------- 
d------------------------------------------------------------------------------ 
a--3---3-3---3-----------------------------------------------------------------  
e--------------3---3-3---3/6-6---6-6---3-4---4-4/6---6------------------------- 
 
 
 
 
e------------------------------------------------------------------------------  
b----4-----4-------8----------------------------------------------------------- 
g------------------------7-------10-----10-----5-------7----------------------- 
d------------------------------------------------------------------------------ 
a--3---3-3---3/6-6------------------------------------------------------------- 
e--------------------3-6---6/9-9----9-9----3-4---4-4/6---6--------------------- 
 
 
e------------------------------------------------------------------------------  
b------4-----4-------8---------------------------------------------------------  
g--------------------------7-------10-----10-----5-------7--------------------- 
d------------------------------------------------------------------------------ 
a-0/3----3-3---3/6-6-----------------------------------------------------------  
e----------------------3-6---6/9-9----9-9----3-4---4-4/6---6------------------- 
 
 
e------------------------------------------------------------------------------- 
b----4-----4-------8------------------------------------------------------------ 
g------------------------7-------10-----10-----5-------7------------------------ 
d------------------------------------------------------------------------------- 
a--3---3-3---3/6-6-------------------------------------------------------------- 
e--------------------3-6---6/9-9----9-9----3-4---4-4/6---6---------------------- 
 
 
e-----------------------------------------------------------0------------------  
b----4-----4-------8----------------------------------------4------------------ 
g------------------------7-------10-----10-----5-------7----0------------------ 
d-----------------------------------------------------------0------------------ 
a--3---3-3---3/6-6------------------------------------------3------------------  
e--------------------3-6---6/9-9----9-9----3-4---4-4/6---6--------------------- 
 
 

Compartilhe esta música: novo

QR Code
Copiar