Roulette (afinação padrão)

System Of A Down

Aê galera, pra afinação padrão, o solo dessa música tava errado 
em todos os sites. Agora tá certo ok? é Só tocar e conferir. 
 
 
Riff1 
1:-------------------------------|-------------------------------| 
2:----4------4---/--8--------3---|-----6------6------------3-----| 
3:-------------------------------|------------------5------------| 
4:-------------------------------|-------------------------------| 
5:-3----3--3-----/6-----0-1----1-|/-4----4--4-----------1-----1--| 
6:-------------------------------|--------------3-4---4----------| 
 
Riff2 
1:-----------------------------|---------------------------------| 
2:----4------4--/---0-----0----|----3------3/---3------3/----4---| 
3:-----------------------------|---------------------------------| 
4:-----------------------------|---------------------------------| 
5:-3----3--3----/--------------|-1----1--1--/1----1--1--/-3----3-| 
6:----------------3---3-3------|---------------------------------| 
 
 
Solo  
 
1:-8---8-10-11---10-11-13----10-11-13-11-10-8-10-11-10--8--8------| 
2:------------------------------------------------------------8-8-| 
3:----------------------------------------------------------------| 
4:----------------------------------------------------------------| 
5:----------------------------------------------------------------| 
6:----------------------------------------------------------------| 
 
1:----------------------------------------------------------------| 
2:---8-10-11-10-8-6-8-9-8-6-6--------7-\-9----7-7--6-6--3-3-------| 
3:-----------------------------------8-\-10---8-8--7-7--5-5-------| 
4:-----------------------------8-8--------------------------------| 
5:----------------------------------------------------------------| 
6:----------------------------------------------------------------| 
 
Letra: 
 
(Riff 1) 
I have a problem that I cannot explain 
I have no reasons why it should have been so plain, 
Have no questions but I sure have excuse 
I lack the reason why I should be so confused,  
 
(Riff 2) 
I know, how I feel when I'm around you, 
I don't know, how I feel when I'm around you, 
Around you,  
 
(Riff 1) 
Left a message but it ain't a bit of use, 
I have some pictures, the wild might be the deuce, 
Today you called, you saw me, you explained, 
Playing the show and running down the plane,  
 
(Riff 2) 
I know, how I feel when I'm around you, 
I don't know, how I feel when I'm around you, 
I know, how I feel when I'm around you, 
I don't know, how I feel when I'm around you, 
Around you,  
 
(Riff 2) 
I know, how I feel when I'm around you, 
I don't know, how I feel when I'm around you, 
I know, how I feel when I'm around you, 
I don't know, how I feel when I'm around you, 
Around you, Around you, Around you... 
 
------------------------------------------------  
No final vc dá um toquinho bem de leve nas cordas que está segurando 
que faz o efeito final. 
 
Ricardo Teotonio - Rancharia - SP 

Compartilhe esta música: novo

QR Code
Copiar