Radio/Video

System Of A Down

Tom: E5
INTRO 2x 
 
     
D|----------------------------------------------------------------| 
A|------8----8---------10------12----12---------12---12-------12--| 
F|----------------------------------------------------------------| 
C|----------------------------------------------------------------| 
G|---7----7------7~9-----------10---------10---------------10-----| 
C|----------------------------------------------------------------| 
   
D|-----------------------------------------------------------------------| 
A|--12~14~12----11--------11------11-----13~11~10-------10--------10-----| 
F|-----------------------------------------------------------------------| 
C|-----------------------------------------------------------------------| 
G|--10--------------9-----9-------9--------------------------8--------8--| 
C|-----------------------------------------------------------------------| 
 
D|----------------------------------------------------------------| 
A|------8----8---------10------12----12---------12---12-------12--| 
F|----------------------------------------------------------------| 
C|----------------------------------------------------------------| 
G|---7----7------7~9-----------10---------10---------------10-----| 
C|----------------------------------------------------------------| 
   
D|-----------------------------------------------------------------| 
A|--12~14~12----11--------11------11-------------------------------| 
F|-----------------------------------------------------------------| 
C|-----------------------------------------------------------------| 
G|--10--------------9-----9-------9-------------14-14---12---10-9--| 
C|-----------------------------------------------------------------| 
 
REFRÀO 2x 
 
E5  F#5  G5  F#5 
D|-----------------------------------------------------| 
A|-----------------------------------------------------| 
F|--9-9---11-11--12~--13~11--------9-9---11~--12-12-~--| 
C|--9-9---11-11--12~--13~11--------9-9---11~--12-12-~--| 
G|--7-7---9---9--10~--11~-9~-------7-7---9-9--10-10----| 
 
Hey man! Look at me rockin out, 
I'm on the radiooooooo, 
Hey man! Look at me rockin out, 
I'm on the videooooooo, 
Hey man! Look at me rockin out, 
I'm on the radiooooooo, 
 
E5  F#5  G5              
Hey man! Look at me rockin out, 
I'm on the videooooooo, 
With Danny and Lisa, 
 
 
G5  F#5  E5  D5  C5  B5  A5   
D|-----------------------------| 
A|-----------------------------| 
F|----9---7---5---4------------|  
C|----9---7---5---4---7--------| 
G|----7---5---3---2---7--------| 
C|-----------------------5-----| 
 
 
 
VERSOS 
(batida reggae) 
 
D|--5-5-5-5-5-5-5-5------3-3-3-3-3-3-3-3--| 
A|--5-5-5-5-5-5-5-5------3-3-3-3-3-3-3-3--| 
F|--5-5-5-5-5-5-5-5------4-4-4-4-4-4-4-4--|  
C|--7-7-7-7-7-7-7-7------5-5-5-5-5-5-5-5--| 
G|--7-7-7-7-7-7-7-7------5-5-5-5-5-5-5-5--| 
C|----------------------------------------| 
 
They take me away away from, 
The strangest place... 
Sweet Danny and Lisa, 
They take me away from...AHHH. 
 
 
Refrão 
 
 
VERSOS 
(batida reggae) 
 
D|--5-5-5-5-5-5-5-5------3-3-3-3-3-3-3-3--| 
A|--5-5-5-5-5-5-5-5------3-3-3-3-3-3-3-3--| 
F|--5-5-5-5-5-5-5-5------4-4-4-4-4-4-4-4--|  
C|--7-7-7-7-7-7-7-7------5-5-5-5-5-5-5-5--| 
G|--7-7-7-7-7-7-7-7------5-5-5-5-5-5-5-5--| 
C|----------------------------------------| 
 
They take me away away from, 
The strangest place... 
Sweet Danny and Lisa, 
They take me away from...AHHH. 
 
Refrão 2x----somente a vocalização do Daron, o Serj sussurando com o solo da intro no fundo  
?Hey man look at me rockin out I?m on the? 
RADIOOOOO?  (volta todos instrumentos) 
 
?Hey man look at me rockin out I?m on the? 
VIDEOOOOO?  (volta todos instrumentos) 
With Danny and Lisa 
 
 
 
VERSOS (dessa vez o Daron e o Serj cantam juntos) 
(batida reggae) 
 
D|--5-5-5-5-5-5-5-5------3-3-3-3-3-3-3-3--| 
A|--5-5-5-5-5-5-5-5------3-3-3-3-3-3-3-3--| 
F|--5-5-5-5-5-5-5-5------4-4-4-4-4-4-4-4--|  
C|--7-7-7-7-7-7-7-7------5-5-5-5-5-5-5-5--| 
G|--7-7-7-7-7-7-7-7------5-5-5-5-5-5-5-5--| 
C|----------------------------------------| 
 
They take me away from, 
The strangest place.... 
Sweet Danny and LisaAaAaAaAa 
 
 
 
SOLO (2x) e continua com a vocalização do Daron e Serj (?la la la la larala la la...?), aumentando o ritmo: 
D|-------------------------------------------------------------------------------| 
A|-------------------------------------------------------------------------------| 
F|-9-10-9~--9-10-9~-9-10-12--12--12-12-10-9--10-9-7-7~--7-7-5-4~--4-5-7-7-5-4^4--| 
 
 
D|-----------------------------------------------------------------------------------------| 
A|-----------------------------------------------------------------------------------------| 
F|-4-4-4?5-4-2?2-2-5?4-2-2-2--5-4-2-2-2--5-4-2-2-2---7-5-4-4-4--7-5-4-4-4--7-5-4-4-4--7-5--| 
 
 
D|-7-7-7--8-7-5-5-5--8-7-5-5-5--8-7-5-5-5--8-7-5-5-5--10-8-7-7-7--10-8-7-7-7--10-8-7-7-7--10-8--| 
A|----------------------------------------------------------------------------------------------| 
F|----------------------------------------------------------------------------------------------| 
 
 
termina com o Refrão 2x 
 
 

Compartilhe esta música: novo

QR Code
Copiar