Question (Solo)

System Of A Down

e|-0--------------0---------|  
B|---0----------0---0-------|  
G|-----12----12-------12----|  
D|--------14-------------14-|  
A|--------------------------|  
E|--------------------------|==========> (várias vezes)  
  
  
e|---------------|  
B|---------------|  
G|---------------|  
D|---------------|  
A|-2--7--5-5/7-5-|  
E|-0--5--3-3/5-3-|==========> (4x)  
 

Compartilhe esta música: novo

QR Code
Copiar