Tuning: Drop D down 1 step (C,G,C,F,A,D) 
Tabbed by: Adam Eugenio ([email protected])(AIM: X SiMPLiSTiK) 
 
Intro: 
 
D |-15-----| Play 20 Times FAST! 
A |--------| 
F |--------| 
C |--------| 
G |--------| 
C |--------| 
 
Pre-Verse: 
 
D |---------------------------| 
A |---------------------------| 
F |---------------------------| 
C |-4-4-4-4-4-4-4-4-4-4-4-4-4-| 
G |-4-4-4-4-4-4-4-4-4-4-4-4-4-| 
C |-4-4-4-4-4-4-4-4-4-4-4-4-4-| 
 
Verse: 
 
D |---------------------------| 
A |-11-8-10-7-----------------| 
F |---------------------------| 
C |-----------4-4-4-4-4-4-4-4-| 
G |-----------4-4-4-4-4-4-4-4-| 
C |-----------4-4-4-4-4-4-4-4-| (4 times) 
 
Chorus: 
 
D |--------------------------------------------------| 
A |--------------------------------------------------| 
F |--------------------------------------------------| 
C |-4-4-4-11-11-11-6-6-6-7-7-7-4-4-4-11-7-10-6-9-5-4-| 
G |-4-4-4-11-11-11-6-6-6-7-7-7-4-4-4-11-7-10-6-9-5-4-| 
C |-4-4-4-11-11-11-6-6-6-7-7-7-4-4-4-11-7-10-6-9-5-4-| (2 times) 
 
Pre Verse: 
 
D |-----------------| 
A |-----------------| 
F |-----------------| 
C |-4-4-4-4-4-4-4-4-| 
G |-4-4-4-4-4-4-4-4-| 
C |-4-4-4-4-4-4-4-4-| (4 times) 
 
Verse: 
 
D |---------------------------| 
A |-11-8-10-7-----------------| 
F |---------------------------| 
C |-----------4-4-4-4-4-4-4-4-| 
G |-----------4-4-4-4-4-4-4-4-| 
C |-----------4-4-4-4-4-4-4-4-| (4 times) 
 
Chorus: 
 
D |--------------------------------------------------| 
A |--------------------------------------------------| 
F |--------------------------------------------------| 
C |-4-4-4-11-11-11-6-6-6-7-7-7-4-4-4-11-7-10-6-9-5-4-| 
G |-4-4-4-11-11-11-6-6-6-7-7-7-4-4-4-11-7-10-6-9-5-4-| 
C |-4-4-4-11-11-11-6-6-6-7-7-7-4-4-4-11-7-10-6-9-5-4-| (2 times) 
 
Bridge: 
 
D |---------------------------------| 
A |---------------------------------| 
F |---------------------------------| 
C |-3-3-3-3-3-3-3-3-4-4-4-4-4-4-4-4-| 
G |-3-3-3-3-3-3-3-3-4-4-4-4-4-4-4-4-| 
C |-3-3-3-3-3-3-3-3-4-4-4-4-4-4-4-4-| (2 times) 
 
Chorus: 
 
D |--------------------------------------------------| 
A |--------------------------------------------------| 
F |--------------------------------------------------| 
C |-4-4-4-11-11-11-6-6-6-7-7-7-4-4-4-11-7-10-6-9-5-4-| 
G |-4-4-4-11-11-11-6-6-6-7-7-7-4-4-4-11-7-10-6-9-5-4-| 
C |-4-4-4-11-11-11-6-6-6-7-7-7-4-4-4-11-7-10-6-9-5-4-| (2 times) 
 
Post Chorus: 
 
D |---------------------------------| 
A |---------------------------------| 
F |---------------------------------| 
C |-4-11-6-7-4-11-11-11-7-7-7-6-6-6-| 
G |-4-11-6-7-4-11-11-11-7-7-7-6-6-6-| 
C |-4-11-6-7-4-11-11-11-7-7-7-6-6-6-| (2 times) 
 
Outro: 
 
D |-------------<6>-| 
A |-----------------| 
F |-----------------| 
C |-4-4-4-4-4-4-----| 
G |-4-4-4-4-4-4-----| 
C |-4-4-4-4-4-4-----| (4 times) 

Compartilhe esta música: novo

QR Code
Copiar