Pshyco (Solo)

System Of A Down

System Of A Down - Psycho (Solo) 
You Can play this in every tuning 
 
 
D|----------------------------------------------------------------------------| 
A|-12--10--12--13--12--13--12--10--12--10--9-9--10--12------------------------| 
F|----------------------------------------------------------------------------| 
C|----------------------------------------------------------------------------| 
G|----------------------------------------------------------------------------| 
C|----------------------------------------------------------------------------| 
 
 
D|---------------12-----------------------------------------------------------| 
A|-10--12--10-12----13--13--12--10--12--10--9-9--10--9--10--9--10--12--10--9--| 
F|----------------------------------------------------------------------------| 
C|----------------------------------------------------------------------------| 
G|----------------------------------------------------------------------------| 
C|----------------------------------------------------------------------------|   
 
 
 
D|--------------------------------------------------------------|  
A|-12-12-12-12-12-12-10-12-13-13-13-12-13-12-10-10-10-10-10-10--|  
F|---9--9--9--9--9--9--9--9--9--9--9--9--9--9--9--9--9--9--9--9-|  
C|--------------------------------------------------------------|  
G|--------------------------------------------------------------|  
C|--------------------------------------------------------------|  
  
D|---------------------------------------------------------------|  
A|-12-12-10-9-9-10-12-12-12-12-12-12-10-12-12-12-12-12-12-10-12--|  
F|---9--9--9-9-------9--9--9--9--9--9--9--9--9--9--9--9--9--9--9-|  
C|---------------------------------------------------------------|  
G|---------------------------------------------------------------|  
C|---------------------------------------------------------------|  
  
D|-10-10-10----------------------------------------|  
A|----------12-13-12-10-10-10-10-10-10-12---10---9-|  
F|---9--9--9--9--9--9--9--9--9--9--9--9---9----9---|  
C|-------------------------------------------------|  
G|-------------------------------------------------|  
C|-------------------------------------------------|  
 

Compartilhe esta música: novo

QR Code
Copiar