Protect The Land

System Of A Down

Tom: Cm
 Drop C (C-G-C-F-A-D) 

Intro 
E|-----------------| |-----------------| 
B|-----------------| |-----------------| 
G|-----------------| |-----------------| 
D|---------7---7---| |-----------------| 
A|-5-7-5---5---5---| |-5-7-5---8---8---| 
E|-5-7-5-0-------0-| |-5-7-5-0-8---8-0-|  x8
  
Verso 1 
E|-----------------| |-----------------||-----------------||-----------------| 
B|-----------------| |-----------------||-----------------||-----------------| 
G|-----------------| |-----------------||-----------------||-----------------| 
D|-----------------| |-----------------||---------7---7---||-----------------| 
A|-8-------8-------| |-7-------7-------||-5-7-5---5---5---||-5-7-5---8---8---| 
E|-8-------8-------| |-7-------7-------||-5-7-5-0-------0-||-5-7-5-0-8---8-0-| x3 
  
Pré refrão 
E|-----------------| |-----------------||-----------------||-----------------| 
B|-----------------| |-----------------||-----------------||-----------------| 
G|-----------------| |-----------------||-----------------||-----------------| 
D|-----------------| |-----------------||-----------------||-----------------| 
A|-5-------5-------| |-5-------5-------||-7-------7-------||-7-------7-------| 
E|-5-------5-------| |-5-------5-------||-7-------7-------||-7-------7-------| x2
  
Refrão 
E|-----------------| |-----------------||-----------------||-----------------| 
B|-----------------| |-----------------||-----------------||-----------------| 
G|-----------------| |-----------------||-----------------||-----------------| 
D|-----------------| |-----------------||-10------10--10--||-----------------| 
A|-0-------0---0---| |-8-------8---8---||-8-------8---8---||-7-------7---7---| 
E|-0-------0---0---| |-8-------8---8---||-----------------||-7-------7---7---| x2 
  
Pós refrão 
E|-----------------| |-----------------||-----------------||-----------------| 
B|-----------------| |-----------------||-----------------||-----------------| 
G|-----------------| |-----------------||-----------------||-----------------| 
D|-----------------| |-----------------||-----------------||-----------------| 
A|-0---------------| |-----------------||-----------------||-------------1---| 
E|-0-------5-7-7-7-| |-7-8-8-8-8-7-7-7-||-7-5-5-5-5-4-4-4-||-4-5-5-5-5-4-1---| x2
  
Verso 2 
E|-----------------| |-----------------||-----------------||-----------------| 
B|-----------------| |-----------------||-----------------||-----------------| 
G|-----------------| |-----------------||-----------------||-----------------| 
D|-----------------| |-----------------||---------7---7---||-----------------| 
A|-8-------8-------| |-7-------7-------||-5-7-5---5---5---||-5-7-5---8---8---| 
E|-8-------8-------| |-7-------7-------||-5-7-5-0-------0-||-5-7-5-0-8---8-0-| x3
  
  
Pré refrão 
E|-----------------| |-----------------||-----------------||-----------------| 
B|-----------------| |-----------------||-----------------||-----------------| 
G|-----------------| |-----------------||-----------------||-----------------| 
D|-----------------| |-----------------||-----------------||-----------------| 
A|-5-------5-------| |-5-------5-------||-7-------7-------||-7-------7-------| 
E|-5-------5-------| |-5-------5-------||-7-------7-------||-7-------7-------| x2 
  
Refrão 
E|-----------------| |-----------------||-----------------||-----------------| 
B|-----------------| |-----------------||-----------------||-----------------| 
G|-----------------| |-----------------||-----------------||-----------------| 
D|-----------------| |-----------------||-10------10--10--||-----------------| 
A|-0-------0---0---| |-8-------8---8---||-8-------8---8---||-7-------7---7---| 
E|-0-------0---0---| |-8-------8---8---||-----------------||-7-------7---7---| x2 
  
E|-----------------| |-----------------||-----------------||-----------------| 
B|-----------------| |-----------------||-----------------||-----------------| 
G|-----------------| |-----------------||-----------------||-----------------| 
D|-7-------7---7---| |-----------------||-10--10--10--10--||-----------------| 
A|-5-------5---5---| |-8---8---8---8---||-8---8---8---8---||-7---7---7---7---| 
E|-----------------| |-8---8---8---8---||-----------------||-7---7---7---7---| x2 
  
Pós refrão 
E|-----------------| |-----------------||-----------------||-----------------| 
B|-----------------| |-----------------||-----------------||-----------------| 
G|-----------------| |-----------------||-----------------||-----------------| 
D|-----------------| |-----------------||-----------------||-----------------| 
A|-0---------------| |-----------------||-----------------||-------------1---| 
E|-0-------5-7-7-7-| |-7-8-8-8-8-7-7-7-||-7-5-5-5-5-4-4-4-||-4-5-5-5-5-4-1---| x4 
  
  
Ponte 
E|-----------------| |-----------------||------------------||-----------------| 
B|-----6-----------| |-----------------||---------10-------||-----------------| 
G|-------------7---| |---------10------||-------------10---||---------9-------| 
D|-7---------------| |-------------8---||-----10-----------||-------------7---| 
A|-5---------------| |-----8-----------||-8----------------||-----7-----------| 
E|-----------------| |-8---------------||------------------||-7---------------| x4 
  
E|-----------------| |-----------------||-----------------||-----------------| 
B|-----------------| |-----------------||-----------------||-----------------| 
G|-----------------| |-----------------||-----------------||-----------------| 
D|-----------------| |-----------------||-10--10----------||-----------------| 
A|-0---0-----------| |-8---8-----------||-8---8-----------||-7---7-----------| 
E|-0---0-----------| |-8---8-----------||-----------------||-7---7-----------| 
  
E|-----------------| |-----------------||-----------------||-----------------| 
B|-----------------| |-----------------||-----------------||-----------------| 
G|-----------------| |-----------------||-----------------||-----------------| 
D|-----------------| |-----------------||-10--10----------||-----------------| 
A|-0---0-----------| |-8---8-----------||-8---8-----------||-7---7---7---7---| 
E|-0---0-----------| |-8---8-----------||-----------------||-7---7---7---7---| 
  
Refrão 
E|-----------------| |-----------------||-----------------||-----------------| 
B|-----------------| |-----------------||-----------------||-----------------| 
G|-----------------| |-----------------||-----------------||-----------------| 
D|-----------------| |-----------------||-10------10--10--||-----------------| 
A|-0-------0---0---| |-8-------8---8---||-8-------8---8---||-7-------7---7---| 
E|-0-------0---0---| |-8-------8---8---||-----------------||-7-------7---7---| x2 
  
E|-----------------| |-----------------||-----------------||-----------------| 
B|-----------------| |-----------------||-----------------||-----------------| 
G|-----------------| |-----------------||-----------------||-----------------| 
D|-7-------7---7---| |-----------------||-10--10--10--10--||-----------------| 
A|-5-------5---5---| |-8---8---8---8---||-8---8---8---8---||-7---7---7---7---| 
E|-----------------| |-8---8---8---8---||-----------------||-7---7---7---7---| x3 
  
E|-----------------| |-----------------||-----------------||-----------------| 
B|-----------------| |-----------------||-----------------||-----------------| 
G|-----------------| |-----------------||-----------------||-----------------| 
D|-7-------7---7---| |-----------------||-10--10--10--10--||-----------------| 
A|-5-------5---5---| |-8---8---8---8---||-8---8---8---8---||-7---7---7---7---| 
E|-----------------| |-8---8---8---8---||-----------------||-7---7---7---7---| 
  
E|-----------------| |-----------------||-----------------| 
B|-----------------| |-----------------||-----------------| 
G|-----------------| |-----------------||-----------------| 
D|-----------------| |-----------------||-----------------| 
A|-7---7---7---7---| |-7-7-7-7-7-7-7-7-||-7-7-7-7-7-7-7-7-| 
E|-7---7---7---7---| |-7-7-7-7-7-7-7-7-||-7-7-7-7-7-7-7-7-| 
   PM.................................................... 
  
Outro 
E|-----------------| |-----------------||-----------------||-----------------| 
B|-----------------| |-----------------||-----------------||-----------------| 
G|-----------------| |-----------------||-----------------||-----------------| 
D|-----------------| |-----------------||-----------------||-----------------| 
A|-0---------------| |-----------------||-----------------||-------------1---| 
E|-0-------5-7-7-7-| |-7-8-8-8-8-7-7-7-||-7-5-5-5-5-4-4-4-||-4-5-5-5-5-4-1---| x4 
  
E|---------| 
B|---------| 
G|---------| 
D|---------| 
A|-0-------| 
E|-0-------| 
  
E|-----------------| |-----------------||------------------||-----------------| 
B|-----6-----------| |-----------------||---------10-------||-----------------| 
G|-------------7---| |---------10------||-------------10---||---------9-------| 
D|-7---------------| |-------------8---||-----10-----------||-------------7---| 
A|-5---------------| |-----8-----------||-8----------------||-----7-----------| 
E|-----------------| |-8---------------||------------------||-7---------------| x4 
  
E|-----------------| 
B|-----------------| 
G|-----------------| 
D|-----------------| 
A|-0---------------| 
E|-0---------------| 

Compartilhe esta música: novo

QR Code
Copiar