Prison song

System Of A Down

Tom: C
 
Afinação(C G C F A D) 
 
 
Intro 
D------------------------------------------------ 
A------------------------------------------------ 
F------------------------------------------------ 
C------------------------------------------------   3x(2x e 3x sem o 0 inicial)	 
G-0---0-1-3-1-0-1-3-1-0-1-3-1-0-1-8-8-8-8-------- 
C-0---0-1-3-1-0-1-3-1-0-1-3-1-0-1-8-8-8-8-------- 
 
 
D------------------------------------------------ 
A------------------------------------------------ 
F------------------------------------------------ 
C------------------------------------------------  Varias vezes 
G-0101010-0101010-0101010-0101010-0108888-------- 
C-0101010-0101010-0101010-0101010-0108888-------- 
 
D------------------------------------------------ 
A------------------------------------------------ 
F------------------------------------------------ 
C------------------------------------------------ 
G-0---0-1-3-1-0-1-3-1-0-1-3-1-0-1-8-8-8-8-------- 
C-0---0-1-3-1-0-1-3-1-0-1-3-1-0-1-8-8-8-8-------- 
 
D------------------------------------------------ 
A------------------------------------------------ 
F------------------------------------------------ 
C------------------------------------------------ 
G-0101010-0101010-0101010-0101010-0108888-------- 
C-0101010-0101010-0101010-0101010-0108888-------- 
 
Versos 
D------------------------------------------------ 
A-------------------------8---------------------- 
F-------7-----7-----7-----------7-----7-----7---- 
C--7--------------------------------------------- 
G-5-5-5---5-5---5-5---5-5---5-5---5-5---5-5---5-- 
C------------------------------------------------ 
 
 
Daron ñ toca na parte em que ele canta loucamente 
 
 
D------------------------------------------------ 
A------------------------------------------------ 
F------------------------------------------------ 
C---7-----7-----7-------------------------------- 
G-5---5-5---5-5---5------------------------------ 
C------------------------------------------------ 
 
 
 
Refrão 
D------------------------------------------------ 
A------------------------------------------------ 
F------------------------------------------------ 
C------------------------------------------------ 
G-0101010---------------------------------------- 
C-0101010---------------------------------------- 
 
D------------------------------------------------ 
A------------------------------------------------ 
F------------------------------------------------ 
C------------------------------------------------   Varias vezes 
G-0101010-0101010-0101010-0101010-0108888-------- 
C-0101010-0101010-0101010-0101010-0108888-------- 
 
 
 
D------------------------------------------------ 
A------------------------------------------------ 
F-------7-----7-----7------------------7--------- 
C--7-----------------------7-----7-----------7--- 
G-5-5-5---5-5---5-5---5-5---5-5---5-5---5-5---5-- 
C------------------------------------------------ 
 
 
Parte louca 
 
 
D----------10-------------------------------------- 
A---10------------10------------------------------- 
F-7----7-7----7-7----7----------------------------- 
C-------------------------------------------------- 
G-------------------------------------------------- 
C-------------------------------------------------- 
 
 
 
Repete o refrão 
 
 
Parte relax 
 
D-9-------------------------8------------------- 
A-11----11--------11-----7---------------------- 
F-10-------10---------9-------9----------------- 
C-8-------------8------------------------------- 
G----------------------------------------------- 
C----------------------------------------------- 
 
 
D----------------------------------------------- 
A----------------------------------------------- 
F-7--7--7--7--7--7-----10-10-10-----------------   2x	 
C-7--7--7--7--7--7-----10-10-10----------------- 
G-5--5--5--5--5--5-----8--8--8------------------ 
C----------------------------------------------- 
 
D----------------------------------------------- 
A----------------------------------------------- 
F-----------------------------------------------  * abafado(palm muted)  
C----------------------------------------------- 
G-00-000-000-000-3333--------------------------- 
C-00-000-000-000-3333--------------------------- 
* -- --- --- ---  
 
 
Repete Parte louca 
 
 
D-------------------------------------------------- 
A---10-----10-----10------------------------------- 
F-7----7-7----7-7----7----------------------------- 
C-------------------------------------------------- 
G-------------------------------------------------- 
C-------------------------------------------------- 
 
Repete refrão 
 
E finaliza com esse riffzinho 
 
 
D-9-------------------------8-----5----------- 
A-11----11--------11-----7--------6----------- 
F-10-------10---------9-------9---7----------- 
C-8-------------8-----------------7----------- 
G---------------------------------5----------- 
C--------------------------------------------- 
 
 
_______________________________________________________ 
Contribuição: Irlan Cassimiro dos Santos([email protected]) 
 
 
 
 
 
Versão 2 
-======- 
 
Tuning;e-B-G-D-A-E 
 
This is not the CD version, it is a demo version i heard before the CD came  
out 
 
Intro 
   C 
e|---| 
B|---| 
G|---| 
D|---| 
A|-10| 
E|-8-| 
   C C# D# C#             ...             ...D# D# D# C 
e|-----------------------------------------------------| 
B|-----------------------------------------------------| 
G|-----------------------------------------------------| 2xvezes 
D|-----------------------------------------------------| 
A|10-11-13-11-10-11-13-11-10-11-13-11-10-11-13-13-13-10| 
E|-8--9-11--9--8--9-11--9--8-9--11--9--8--9-11-11-11--8| 
 
e|---------------------------------------| 
B|---------------------------------------| 
G|---------------------------------------| 
D|---------------------------------------| 
A|-10-11-13-11--10-11-13-11--10-11-13-11-| 
E|--8-9--11-9---8--9--11--9---8--9-11--9-| 
 
e|---------------------|   |------------------------| 
B|---------------------|1º |------------------------|2º 
G|---------------------|   |------------------------| 
D|-------------------12|1x |------------------------| 3 x vezes 
A|-10-10-10-11h13-10-11|   |--10-10-10-10-10-11-10--| 
E|-8--8--8--9h11--8----|   |--8--8--8--8--8--9---8--| 
p.m......     .........      .........      ......... 
 
depois faz o rff 1º e o 2º de novo 
 
e|------------------------------------------------------| 
B|------------------------------------------------------| 
G|------------------------------------------------------| 
D|------------------------------------------------------| 
A|-10-11-13-11--10-11-13-11--10-11-13-11--10-11-11-11-11| 
E|--8-9--11--9---8--9-11--9---8--9-11--9---8--9--9--9--9| 
 
riff3 
e|----------------------|      |---------------------| 
B|----------------------|lado  |---------------------| 
G|----------------------|esquer|---------------------|outro 1  
D|-11-------------------| do   |---------------------| 
A|-9--10-10-10-10-11-10-| 3x   |-10-10-10-10-10-11-10|  
E|-----8--8--8--8--9--8-|      |--8--8--8--8--8--9--8| 
p.m......      .........      .........   ........... 
 
Verse 
 
e|--------| 
B|--------| 
G|---11---| 
D|-9----9-| 
A|--------| 
E|--------| 
 
Chorus 
 
e|--------------------------------------------| 
B|--------------------------------------------| 
G|--------------------------------------------|varias x vezes 
D|-----------------------------------------13-| 
A|-10-10-10-10-10-11-10--10-10-10-11h13-10-11-| 
E|--8--8--8--8--8--9--8---8--8--8--9h11--8----| 
 
riff 3 
 
Bridge 
 
e|----------------------------------------------------------| 
B|----------------------------------------------------------| 
G|----------------------------------------------------------| 
D|----------------------------------------------------------| 
A|-10-11-13-11--10-11-13-11--10-11-13-11--10-11-13-13-13-10-| 
E|--8--9-11--9---8--9-11--9---8--9-11--9---8-11-11-11-11--8-| 
 
e|----------------------------------------------------------------------------------------| 
B|--------------------------------------------------------------------------------------3-| 
G|--------------------------------------------------------------------------------------3-| 
D|--------------------------------------------------------------------------------------3-| 
A|-10-10-10-10-10-11-10--10-10-10-10-10-11-10--10-10-10-10-10-11-10--10-10-10-11h13-10-11-| 
E|--8--8--8--8--8--9--8---8--8--8--8--8--9--8---8--8--8--8--8--9--8---8--8--8--9h11--8---| 
     F# 
e|----------|---------------------------------------------------------| 
B|-11-------|---------------------------------------------------------| 
G|---11-----|---------------------------------------------------------| 
D|-----11---|------------------------------------------------13-13-13-| 
A|--------9-|-10-10-10-10-10-10-10-10--10-10-10-10--10-10-10-11-11-11-| 
E|----------|--8--8--8--8--8--8--8--8---8--8--8--8---8--8--8----------| 
 
e|----------------------------------------------| 
B|----------------------------------------------| 
G|----------------------------------------------| 
D|-------------------------------------13-13-13-| 
A|-10-10--10-10-10--10-10-10--10-10-10-11-11-11-| 
E|--8--8---8--8--8---8--8--8---8--8--8----------| 
  p.m  .....  .....  ..... 
 
Outro 
 
e|----------------------------------------------------------| 
B|----------------------------------------------------------| 
G|----------------------------------------------------------| 
D|----------------------------------------------------------| 
A|-10-11-13-11--10-11-13-11--10-11-13-11--10-11-13-13-13-10-| 
E|--8--9-11--9---8--9-11--9---8--9-11--9---8--9-11-11-11--8-| 
 
e|----------------------------------------------------------------------------------------| 
B|-------------------------------------------------------------------------------------13-| 
G|-------------------------------------------------------------------------------------13-| 
D|-------------------------------------------------------------------------------------13-| 
A|-10-10-10-10-10-11-10--10-10-10-10-10-11-10--10-10-10-10-10-11-10--10-10-10-11h13-10-11-| 
E|--8--8--8--8--8--1--8---8--8--8--8--8--9--8---8--8--8--8--8--9--8---8--8--8--9h11--8----| 
   F#            F 
e|-------------------------------11-| 
B|---13-----13-----12-----12-----13-| 
G|-----13-----13-----12-----12---12-| 
D|-------13------------12--------10-| 
A|-11------------10-----------------| 
E|----------------------------------| 

Compartilhe esta música: novo

QR Code
Copiar