Pluck (intro)

System Of A Down

Tuning: CGCFAD 
 
 
    pm................... 
-|--0-0-0-0-0-0-0-0-0-0-0-0-0-0-0-0-|- 
-|----------------------------------|- 
-|----------------------------------|- 
-|----------------------------------|- 
-|----------------------------------|- 
-|----------------------------------|- 
 
 
 
 pm....................................................... 
-|---------------------------------------------------------|- 
-|---------------------------------------------------------|- 
-|---------------------------------------------------------|- 
-|-2-2-3--2---2-2-3-3-2-2---2--3--2-2-3-3-2-2---0--0--0--0-|- 
-|-2-2-3--2---2-2-3-3-2-2---2--3--2-2-3-3-2-2---0--0--0--0-|- 
-|-2-2-3--2---2-2-3-3-2-2---2--3--2-2-3-3-2-2---0--0--0--0-|- 
 
 
 
 pm........................................ 
-|------------------------------------------|- 
-|------------------------------------------|- 
-|------------------------------------------|- 
-|-2-2-3--2---2-2-3-3-2-2---2--3--2-2-3-3-2-|- 
-|-2-2-3--2---2-2-3-3-2-2---2--3--2-2-3-3-2-|- 
-|-2-2-3--2---2-2-3-3-2-2---2--3--2-2-3-3-2-|- 
 
 
 
-|------------------------------------------|- 
-|------------------------------------------|- 
-|------------------------------------------|- 
-|-2-2-3--2---2-2-3-3-2-2---2--3--2-2-3-3-2-|- 
-|-2-2-3--2---2-2-3-3-2-2---2--3--2-2-3-3-2-|- 
-|-2-2-3--2---2-2-3-3-2-2---2--3--2-2-3-3-2-|- 
 
 
 
-|-------------------------------|- 
-|-------------------------------|- 
-|-------------------------------|- 
-|-2-2-3--2---2-2-3-3-2-2---2--3-|- 
-|-2-2-3--2---2-2-3-3-2-2---2--3-|- 
-|-2-2-3--2---2-2-3-3-2-2---2--3-|- 
 
 
 
-|------------|----------------|---------------|----------------|- 
-|------------|----------------|---------------|----------------|- 
-|-9-9---9--9-|-9-9---9---9--9-|---10-9---9--9-|-9-9---9---9--9-|- 
-|-9-9---9--9-|-9-8^9-9---9--9-|-9-9--9---9--9-|-9-8^9-9---9--9-|- 
-|-7-7---7--7-|-7-7---7---7--7-|-8-8--7---7--7-|-7-7---7---7--7-|- 
-|------------|----------------|---------------|----------------|- 
 
 
 
-|-------------------------------------------------|- 
-|-------------------------------------------------|- 
-|--7/9-9-9-99/13-13-13-1313/15-15-15-10/-13-13-13-|- 
-|-------------------------------------------------|- 
-|--5/7-7-7-77/11-11-11-1111/13-13-13--8/-11-11-11-|- 
-|-------------------------------------------------|- 
 
 
 
         pm. 
-|-----------|- 
-|-----------|- 
-|-----------|- 
-|--0-2--222-|- 
-|--0-2--222-|- 
-|--0-2--222-|- 
 
 
-|---------------------|- 
-|---------------------|- 
-|---------------------|- 
-|--0-2--3-3-3-3-3-3-3-|- 
-|--0-2--2-2-2-2-2-2-2-|- 
-|--0-2--3-3-3-3-3-3-3-|- 
 
 
 
-|-----------------------------------------------|- 
-|-----------------------------------------------|- 
-|------5-5-5-5/7-5-2----------------------------|- 
-|--2-----------------5--5-5--5-5--3-3---3-5-3/2-|- 
-|--2---3-3-3-3/5-3-0-5--5-5--5-5--3-3---3-5-3/2-|- 
-|--2-----------------5--5-5--5-5--3-3---3-5-3/2-|- 
 
 
 
-|-----------------------------------------|- 
-|-----------------------------------------|- 
-|------5-5-5-5/7-5-2----------------------|- 
-|--2-----------------5--5-5--5-5--3-3-3-3-|- 
-|--2---3-3-3-3/5-3-0-5--5-5--5-5--3-3-3-3-|- 
-|--2-----------------5--5-5--5-5--3-3-3-3-|- 
 
 
 
-|----------------------------------------------|- 
-|----------------------------------------------|- 
-|------5-5-5-5/7-5-2---------------------------|- 
-|--2-----------------5--5-5--5-5--3-3--3--3--2-|- 
-|--2---3-3-3-3/5-3-0-5--5-5--5-5--3-3--3--3--2-|- 
-|--2-----------------5--5-5--5-5--3-3--3--3--2-|-

Compartilhe esta música: novo

QR Code
Copiar