Pizza Pie

System Of A Down

 
Intro 
D|----------------------------------------------| 
A|----------------------------------------------| 
D|----------------------------------------------| 
G|----------------------------------------------| 
B|--7777777777777777-7777777777777777-----------| 
E|--7777777777777777-7777777777777777-----------| 
 
Verse 
D|-10p9999999--10p9999999--10p9999999--10p9-99-10p9-10p9------| 
A|-10p9999999--10p9999999--10p9999999--10p9-99-10p9-10p9------| 
D|------------------------------------------------------------| 
G|------------------------------------------------------------| 
B|------------------------------------------------------------| 
E|------------------------------------------------------------| 
 
Pre-Chorus 
D|----------------------------------------------| 
A|----------------------------------------------| 
D|-9-10-12-10-9-10-12-10-9-10-12-10-9-----------| 
G|----------------------------------------------| 
B|----------------------------------------------| 
E|----------------------------------------------| 
 
Chorus (First-half Palm muted) 
D|-9-9h10p9-9h10p9-9h10p9h10p9h10---------------| 
A|-9-9h10p9-9h10p9-9h10p9h10p9h10---------------| 
D|----------------------------------------------| 
G|----------------------------------------------| 
B|----------------------------------------------| 
E|----------------------------------------------| 
 
Bridge ('advertisings got you on the run..') 
D|---------9-9h10p9-9h10p9-9h10p9h10p9h10-------| 
A|--4------9-9h10p9-9h10p9-9h10p9h10p9h10-------| 
D|----6-----------------------------------------| 
G|------5---------------------------------------| 
B|----------------------------------------------| 
E|----------------------------------------------| 
    just between these 2 chords for the rest 
D|----------------------------------------------| 
A|--4------------2------------------------------| 
D|----6------------4----------------------------| 
G|------5------------3--------------------------| 
B|----------------------------------------------| 
E|----------------------------------------------| 
 
 
 
_______________________________________________________ 
Contribuição: Daron Malakian([email protected]) 

Compartilhe esta música: novo

QR Code
Copiar