Peephole

System Of A Down

Tom: C
 
 Afinação(C G C F A D) 
 Introdução 
D|------------------------------------------------------------------| 
A|----3---3---3---3---3---3---3---3---3---3---3---3---3---3---3---3-| 
F|---3---3---3---3---3---3---3---3---3---3---3---3---3---3---3---3--| 
C|-5---5------------------------------5---5-------------------------| 
G|----------4---5---0---0---4---5------------4---5---0---4---5------| 
C|------------------------------------------------------------------| 
             Verso:2 
D|------------| D|-----------------| 
A|---3-3------| A|-----------------| 
F|---3-3------| F|-----------------| 
C|------------| C|----444444777777-| 
G|------------| G|----444444777777-| 
C|------------| C|----444444777777-| 
 
 
         Verso:3 
D|--------------------------------------------------------| 
A|--------------------------------------------------------| 
F|--------------------------------------------------------| 
C|--555555--(onze)111111111111(doze)121212121212---777777-| 
G|--------------------------------------------------------| 
C|--------------------------------------------------------| 
 
D|---------------------------------------------| 
A|---------------------------------------------| 
F|---------------------------------------------| 
C|-111111111111-121212121212-151515161718------| 
G|---------------------------------------------|                                       
C|---------------------------------------------| 
      Verso:4      
D|----------------------------------------------------|              
A|----------------------------------------------------| 
F|----------------------------------------------------| 
C|---5--------11-----12----7--11----12----3-----1-----|                                
G|---5--------11-----12----7--11----12----3-----1-----| 
C|---5--------11-----12----7--11----12----3-----1-----| 
         Repete Introdução 
         Repete Verso:1 
         Repete Verso:2 
         Repete Verso:3  
         Repete Verso:4 
 
D------------| 
A------------| 
F------------|  
C--333333--1-|  
G--333333--1-| 
C--333333--1-| 
 
 
D|---------------|---------------------------------------------------| 
A|-2-3-2h3-0-2-2x|-2-3-2h3-0-2-0-------------------------------------| 
F|---------------|---------------2-1-2-1h2-----0---0---0---0---0---0-|  
C|---------------|-------------------------4-3---3---3---3---3---3---| 
G|---------------|---------------------------------------------------| 
C|---------------|---------------------------------------------------| 
 
D|-9-10-9h10-7-9-2x|-9-10-9h10-7-9-7-5-4-5-4h5-2-0-1-0-1-0-1-0-1-0-1-0-1-| 
A|-----------------|-----------------------------------------------------| 
F|-----------------|-----------------------------------------------------| 
C|-----------------|-----------------------------------------------------| 
G|-----------------|-----------------------------------------------------| 
C|-----------------|-----------------------------------------------------| 
 
D|---7---7---7---7---7-----6---6---6---6---6------5^----5^----5^----5^-| 
A|-5---5---5---5---5---5-4---4---4---4---4---4-3^----3^----3^----3^----| 
F|---------------------------------------------------------------------| 
C|---------------------------------------------------------------------| 
G|---------------------------------------------------------------------| 
C|---------------------------------------------------------------------| 
 
D|---7---7---7---7---7-----6---6---6---6---6-----5-5h6h4---4-4h5h3-| 
A|-5---5---5---5---5---5-4---4---4---4---4---4-3---------2---------| 
F|-----------------------------------------------------------------| 
C|-----------------------------------------------------------------| 
G|-----------------------------------------------------------------| 
C|-----------------------------------------------------------------| 
 
D|---7---7---7---7---7-----6---6---6---6---6---15151515^-15^-15^-15^-| 
A|-5---5---5---5---5---5-4---4---4---4---4---4-----------------------| 
F|-------------------------------------------------------------------| 
C|-------------------------------------------------------------------| 
G|-------------------------------------------------------------------| 
C|-------------------------------------------------------------------| 
 
D|-5--5--6--6--7--7-5555-5-4-| 
A|-3--3--4--4--5--5-3333-3-2-| 
F|---------------------------| 
C|---------------------------| 
G|---------------------------| 
C|---------------------------| 
 
D|-----------------------------------------------------| 
A|-----------------------------------------------------| 
F|-----------------------------------------------------| 
C|----5---11--12---7--11---12----5---11-12--7--11--12--| 
G|----5---11--12---7--11---12----5---11-12--7--11--12--| 
C|----5---11--12---7--11---12----5---11-12--7--11--12--| 
 
 
 
Letra: 
 
When your stars are baked  
And your rivers fly  
Do you ever believe you were stuck out in the  Sky  
 
When your castle breaks   
And your feet are dry  
Do you ever believe you were stuck out in the  Sky  
 
Do you believe  when you're high  
That your life is tried  
 
Don't you ever get stuck in the sky  
Don't you ever get stuck in the sky  
Don't ever get stuck in the sky  when you're high  
 
When your moon is fake  
And your mermaids cry  
Do you ever believe you were stuck out in the  Sky  
 
When your tunnel fades  
And your guide is shy  
Do you ever believe you were stuck out in the  Sky  
 
Do you believe  when you're high  
That your life is tried  
 
Don't you ever get stuck in the sky  
Don't you ever get stuck in the sky  
Don't ever get stuck in the sky  when you're high  
Don't you ever get stuck in the sky  
Don't you ever get stuck in the sky  
Don't ever get stuck in the sky  when you're high~ 
 
Don't you ever get stuck in the sky  
Don't you ever get stuck in the sky  
Don't you ever get stuck in the sky  
Don't you ever get stuck in the sky  
Don't you ever get stuck in the sky  
Don't you ever get stuck in the sky  
Don't ever get stuck in the sky  when you're high 

Compartilhe esta música: novo

QR Code
Copiar