Nuguns (solo ver 2)

System Of A Down

(solo) 
 
I may be a bit late and not many listen to SOAD anymore (I may be wrong) but i 
just want to submit my tabs for this great song. This is my favorite song from 
Steal This Album! by System of A Down, one of the greatest rock bands in the world!!! 
Sorry Ben Misikin, and i mean it sincerely, but i can't understand your solo 
tabs, so i made another one. Thanx for understanding. 
 
This song is in (as usual) Drop C: CGCFAD 
 
I tabbed this in a way so that you can read both guitars (mandolins, maybe?) 
in the exact timing they are being played. 
 
A 
Guitar 1 
d --------------------------------------------------------------- 
a --------------------------------------------------------------- 
f -7777777777777777-8888-7-5-7--5-3-5--3-2-3--2-0---------------- 
c --------------------------------------------------------------- 
g --------------------------------------------------------------- 
c --------------------------------------------------------------- 
 
Guitar 2 (absent) 
d --------------------------------------------------------------- 
a --------------------------------------------------------------- 
f --------------------------------------------------------------- 
c --------------------------------------------------------------- 
g --------------------------------------------------------------- 
c --------------------------------------------------------------- 
 
B 
Guitar 1  
(note: this is played on high 'c' string while above was played on 'f') 
d --------------------------------------------------------------- 
a --------------------------------------------------------------- 
f --------------------------------------------------------------- 
c -7777777777777777-8888-7-5-7--5-3------------------------------ 
g -----------------------------------0-2-3-2--------------------- 
c --------------------------------------------------------------- 
 
Guitar 2 
d --------------------------------------------------------------------------- 
a -----------------/15-15-15-16-18-16-15-16-15b16-13-15-13-11-13-11-10-11-10- 
f --------------------------------------------------------------------------- 
c --------------------------------------------------------------------------- 
g --------------------------------------------------------------------------- 
c --------------------------------------------------------------------------- 
 
C 
Guitar 1 (this is played on 'a' string) 
d --------------------------------------------------------------- 
a -7777777777777777-10b7h8b7h10b7h88b7h10--8h7-8h7-8h7----------- 
f --------------------------------------------------------------- 
c --------------------------------------------------------------- 
g --------------------------------------------------------------- 
c --------------------------------------------------------------- 
 
Guitar 2 
d ---------------------------------------------------------------------------- 
a -12-1212-1212-1212-1212-1212-1212-1212-12b15h12b13h12b15h12b13h12b15--13h12- 
f ---------------------------------------------------------------------------- 
c ---------------------------------------------------------------------------- 
g ---------------------------------------------------------------------------- 
c ---------------------------------------------------------------------------- 
 
D 
Guitar 1 
d ----------55555555----------55555555----------55555555--------- 
a -33333333----------33333333----------33333333------------------ 
f --------------------------------------------------------------- 
c --------------------------------------------------------------- 
g --------------------------------------------------------------- 
c --------------------------------------------------------------- 
 
Guitar 2 
d --------------------------------------------------------------- 
a -15-15-15-15-15-15-15-15-15b16b18h16h15h13-15h13h11h10--------- 
f --------------------------------------------------------------- 
c --------------------------------------------------------------- 
g --------------------------------------------------------------- 
c --------------------------------------------------------------- 
 
E 
Guitar 1 
d --------------------------------------------------------------- 
a --------------------------------------------------------------- 
f -2-3-5-3------------------------------------------------------- 
c --------------------------------------------------------------- 
g --------------------------------------------------------------- 
c --------------------------------------------------------------- 
 
Guitar 2 
d --------------------------------------------------------------- 
a -10-11-13-11--------------------------------------------------- 
f --------------------------------------------------------------- 
c --------------------------------------------------------------- 
g --------------------------------------------------------------- 
c --------------------------------------------------------------- 
 
Hey, it's real easy! U juz gots to listen closely to the song (I've always wanted 
to say that), and u gots to be fast with them fingers (or picks). Daron Malakian, 
I WORSHIP YOU!!! 
Alright, I feel enlightened now that i've put it down on paper. Please feel free 
to comment about this tab at [email protected] Also, if u can give me 
some tips on how to play the natural harmonics for this song's verses (I have clumsy 
fat fingers), pls email to me. 
 
Peace to the world 
Sarch the Dragon 

Compartilhe esta música: novo

QR Code
Copiar