Mushroom Cult

System Of A Down

Artist:    System Of A Down                                              | 
|Song:      Mushroom Cult (--)                                            | 
|Album:     --------                                                      |  
|Tabbed by: Me                                                            |   
|Tuning:    D-A-F-C-G-C                                                   | 
___________________________________________________________________________ 
 
I didn´t found this song here at ug. so i thought i make it. sometimes it sounds 
strange, but i hope it´s right. this song is unreleased. and it´s with somebody 
else, but you can hear serjs voice, so it´s soad. have fun! 
ps: i hope this will be submitted, because my last tabs weren´t. 
 
|------------------------------------------------------|------------------| 
|------------------------------------------------------|------------------| 
|------------------------------------------------------|------------------| 
|------12-----14--9--7--------------12----10-----------|-x4---------------| 
|5--7--10--7--12--7--5--7--6--7--9--10--9--8--9--7--5--|------------------| 
|5--7------7------------7--6--7--9------9-----9--7--5--|------------------| 
 
|4--4--4-4-4-4--4--4-4-4-4--4--4-4-4-4--4--4-4-4--------------------------| 
|3--3--3-3-3-3--3--3-3-3-3--3--3-3-3-3--3--3-3-3--------------------------| 
|-------------------------------------------------------------------------| 
|-------------------------------------------------------------------------| 
|-------------------------------------------------------------------------| 
|-------------------------------------------------------------------------| 
 
In Verse there is Keyboard. It goes on with Chorus: 
 
|--------------------------------------|----------------------------------| 
|--------------------------------------|----------------------------------| 
|--------------------------------------|----------------------------------| 
|--------------------------------------|-x3-------------------------------| 
|12--12--12--12--15--12--12--8-7-6--6--|----------------------------------| 
|12--12--12--12--15--12--12--8-7-6--6--|----------------------------------| 
 
|--------------------------------------------4-4-4-4-4-4-4-4-4-4-4-4------| 
|--------------------------------------------3-3-3-3-3-3-3-3-3-3-3-3------| 
|-------------------------------------------------------------------------| 
|-------------------------------------------------------------------------| 
|12--12--12--12--15--12--12--8-7-6--6--6--6-------------------------------| 
|12--12--12--12--15--12--12--8-7-6--6--6--6-------------------------------| 
 
|--------------------------------------------|----|-----------------------| 
|--------------------------------------------|----|-----------------------| 
|--------------------------------------------|----|-----------------------| 
|4--3----4--3-7-7-7-10--7----10--13-10-10-10-|-x4-|-----------------------| 
|4--3----4--3-7-7-7-10--7----10--13-10-10-10-|----|-----------------------| 
|4--3----4--3-7-7-7-10--7----10--13-10-10-10-|----|-----------------------| 
 
Then Verse with Keyboard again. It goes on with Chorus: 
 
|--------------------------------------|----------------------------------| 
|--------------------------------------|----------------------------------| 
|--------------------------------------|----------------------------------| 
|--------------------------------------|-x3-------------------------------| 
|12--12--12--12--15--12--12--8-7-6--6--|----------------------------------| 
|12--12--12--12--15--12--12--8-7-6--6--|----------------------------------| 
 
|--------------------------------------------4-4-4-4-4-4-4-4-4-4-4-4------| 
|--------------------------------------------3-3-3-3-3-3-3-3-3-3-3-3------| 
|-------------------------------------------------------------------------| 
|-------------------------------------------------------------------------| 
|12--12--12--12--15--12--12--8-7-6--6--6--6-------------------------------| 
|12--12--12--12--15--12--12--8-7-6--6--6--6-------------------------------| 
 
|--------------------------------------------|----|-----------------------| 
|--------------------------------------------|----|-----------------------| 
|--------------------------------------------|----|-----------------------| 
|4--3----4--3-7-7-7-10--7----10--13-10-10-10-|-x4-|-----------------------| 
|4--3----4--3-7-7-7-10--7----10--13-10-10-10-|----|-----------------------| 
|4--3----4--3-7-7-7-10--7----10--13-10-10-10-|----|-----------------------| 
 
|----------------------------------------------------------|--------------| 
|---------------------------------------------14-13--------|--------------| 
|--------------------14--------------14-13-14-------15-14--|--------------| 
|13--x-x-14--13--x-x-----13--x-x-14------------------------|-x2-----------| 
|----------------------------------------------------------|--------------| 
|----------------------------------------------------------|--------------| 
 
|------------------------------------4--4--|------------------------------| 
|------------------------------------3--3--|------------------------------| 
|------------------------------------------|------------------------------| 
|3-6-5-3-4---3-6-5-3-4---3-6-5-3-4---------|-x4---------------------------| 
|3-6-5-3-4---3-6-5-3-4---3-6-5-3-4---------|------------------------------| 
|3-6-5-3-4---3-6-5-3-4---3-6-5-3-4---------|------------------------------| 
 
|4--4--4--4--4--4--4--4--4--4--4--4--x-3-3-3-x-3-3-3-|--------------------| 
|3--3--3--3--3--3--3--3--3--3--3--3--x-2-2-2-x-2-2-2-|--------------------| 
|----------------------------------------------------|--------------------| 
|----------------------------------------------------|-x2-----------------| 
|----------------------------------------------------|--------------------| 
|----------------------------------------------------|--------------------| 
 
|-------------------------------------------------------------------------| 
|-------------------------------------------------------------------------| 
|--14--13--15--14--14--13--15--14--14--13--15--14--14--13--15--14---------| 
|-------------------------------------------------------------------------| 
|-------------------------------------------------------------------------| 
|-------------------------------------------------------------------------| 
 
|4-5-3-3-4-5-3-3-4-5-3-3-4-5-3-3------------------------------------------| 
|3-3-2-2-3-3-2-2-3-3-2-2-3-3-2-2------------------------------------------| 
|-------------------------------------------------------------------------| 
|-------------------------------------------------------------------------| 
|-------------------------------------------------------------------------| 
|-------------------------------------------------------------------------| 
 
|-------------------------------------------------------------------------| 
|-------------------------------------------------------------------------| 
|--14--13--15--14--14--13--15--14--14--13--15--14--14--13--15--14---------| 
|-------------------------------------------------------------------------| 
|-------------------------------------------------------------------------| 
|-------------------------------------------------------------------------| 
 
|------------------------------------4--4--|------------------------------| 
|------------------------------------3--3--|------------------------------| 
|------------------------------------------|------------------------------| 
|3-6-5-3-4---3-6-5-3-4---3-6-5-3-4---------|-x4---------------------------| 
|3-6-5-3-4---3-6-5-3-4---3-6-5-3-4---------|------------------------------| 
|3-6-5-3-4---3-6-5-3-4---3-6-5-3-4---------|------------------------------| 
 
|------------------------------------------------------|------------------| 
|------------------------------------------------------|------------------| 
|------------------------------------------------------|------------------| 
|------12-----14--9--7--------------12----10-----------|-x2---------------| 
|5--7--10--7--12--7--5--7--6--7--9--10--9--8--9--7--5--|------------------| 
|5--7------7------------7--6--7--9------9-----9--7--5--|------------------| 
 
|-----------------------------------------------------|-------------------| 
|-----------------------------------------------------|-------------------| 
|-----------------------------------------------------|-------------------| 
|------12-----14--9--7--------------12----10----------|-x2----------------| 
|5--7--10--7--12--7--5--7--6--7--9--10--9--8--9--7----|-------------------| 
|5--7------7------------7--6--7--9------9-----9--7----|-------------------| 
 
Thanks for using this Tab. If there are any comments, questions etc. e-mail 
me at: [email protected] . System Of A Down is the best band ever!!! 
-mAgGoT-

Compartilhe esta música: novo

QR Code
Copiar