Mesmerize

System Of A Down

INTRO  
Eb |--------------------------|  
Bb |--------------------------|  
Gb |--------------------------|  
Db |--------------------------|  
Ab |--5p0h5p0h5p05p05p05p0h6--|  
Db |--------------------------|  
  
   Part I  
Eb |-----------------------------------------||--------------------------------|  
Bb |-----------------------------------------||--------------------------------|  
Gb |--7--------------------------------------||--7-----------------------------|  
Db |--7--------------------------------------||--7-------------------8--10--8--|  
Ab |--5-555555555555-5p0h5p0h5p05p05p05p0h6--||--5-5555555555555555--6--8---6--|  
Db |-----------------------------------------||--------------------------------|  
   pm   ............                               ................  
    
Eb |-----------------------------------------||--------------------------------|  
Bb |-----------------------------------------||--------------------------------|  
Gb |--7--------------------------------------||--7-----------------------------|  
Db |--7--------------------------------------||--7------------8-10-8--8-10-8---|  
Ab |--5-555555555555-5p0h5p0h5p05p05p05p0h6--||--5-555555555--6-8--6--6-8--6---|  
Db |-----------------------------------------||--------------------------------|  
   pm   ............                               .........  
  
   Part II  
Eb |--------------------------------------||---------------------------|  
Bb |--------------------------------------||---------------------------|  
Gb |--7-77-77-77--------------------------||--7-77-77-77-77------------|  
Db |--7-77-77-77--------------------------||--7-77-77-77-77--8--10--8--|  
Ab |--5-55-55-55--5p0h5p0h5p05p05p05p0h6--||--5-55-55-55-55--6--8---6--|  
Db |--------------------------------------||---------------------------|  
   pm   .. .. ..                                .. .. .. ..  
  
Eb |--------------------------------------||-----------------------------|  
Bb |--------------------------------------||-----------------------------|  
Gb |--7-77-77-77--------------------------||--7-77-77-7------------------|  
Db |--7-77-77-77--------------------------||--7-77-77-7--8-10-8--8-10-8--|  
Ab |--5-55-55-55--5p0h5p0h5p05p05p05p0h6--||--5-55-55-5--6-8--6--6-8--6--|  
Db |--------------------------------------||-----------------------------|  
   pm   .. .. ..                                .. .. .  
  
   Part III  
Eb |------------------------------|  
Bb |------------------------------|  
Gb |------------------------------|  
Db |------------------------------|  
Ab |--5-686--5-686--5-686--5-686--|  
Db |------------------------------|  
   pm . ...  . ...  . ...  . ...  
  
   Part IV  
Eb |------------------------------------------|  
Bb |------------------------------------------|  
Gb |--777777-8--777777-8--777777-8--777777-8--|  
Db |--777777-8--777777-8--777777-8--777777-8--|  
Ab |--555555-6--555555-6--555555-6--555555-6--|  
Db |------------------------------------------|  
  
   Part V (clean w/tremolo effect, then distortion)  
Eb |----------------------|------|  
Bb |----------------------|------|   
Gb |--3~---7~---2~---5~---|--5~--|  
Db |--1~---5~---0~---3~---|--3~--|  
Ab |--1~---5~---0~---3~---|--3~--|  
Db |--1~---5~---0~---3~---|--3~--|  
  
   Part VI (clean-ish)  
Eb |----------------------------------------------------------------------|  
Bb |----------------------------------------------------------------------|  
Gb |------7---8---7--------7---6---7-------------------------7---6---7----|  
Db |----5---5---5---5----5---5---5---5------7---8---7------5---5---5---5--|  
Ab |--6-----------------------------------5---5---5---5--6----------------|  
Db |-------------------5----------------0---------------------------------|  
  
   Part VII  
Eb |---------------------------------------||---------------------------|  
Bb |---------------------------------------||---------------------------|  
Gb |--7-777-7-777--------------------------||--7-777-7-77777------------|  
Db |--7-777-7-777--------------------------||--7-777-7-77777--8--10--8--|  
Ab |--5-555-5-555--5p0h5p0h5p05p05p05p0h6--||--5-555-5-55555--6--8---6--|  
Db |---------------------------------------||---------------------------|  
   pm   ...   ...                                ...   .....  
  
Eb |---------------------------------------||------------------------------------|  
Bb |---------------------------------------||------------------------------------|  
Gb |--7-777-7-777--------------------------||--7-777-7-77777---------------------|  
Db |--7-777-7-777--------------------------||--7-777-7-77777--8-10-8--8-10-8--7--|  
Ab |--5-555-5-555--5p0h5p0h5p05p05p05p0h6--||--5-555-5-55555--6-8--6--6-8--6--5--|  
Db |---------------------------------------||------------------------------------|  
   pm   ...   ...                                ...   .....  
    
 
 

Compartilhe esta música: novo

QR Code
Copiar