longest ime

System Of A Down

Main riff 
e|----------------------------------------------------------- 
b|----------------------------------------------------------- 
g|----------------------------------------------------------- 
D|-5-5-5-5-5-5-5-5------------------------------------------- 
A|-3-3-3-3-3-3-3-3--5-5-5-5-5-5-5-5--7-7-7-7-7-7-7-7-7-7-7-7- 
E|------------------3-3-3-3-3-3-3-3--5-5-5-5-5-5-5-5-5-5-5-5- 
   . . . . . . . .  . . . . . . . .  . . . . . . . . . . . . 
 
 --------------------------------------------------------------------| 
 --------------------------------------------------------------------| 
 -----------------------------------------------------------------5--| 
 -5-5-5-5-5-5-5-5--------------------------------------------7-5-65--| 
 -3-3-3-3-3-3-3-3--5-5-5-5-5-5-5-5--3-3-3-3-3-3-3-3-3-3-3-3--7-5-43--| 
 ------------------3-3-3-3-3-3-3-3--1-1-1-1-1-1-1-1-1-1-1-1--5-3-----| 
  . . . . . . . .  . . . . . . . .  . . . . . . . . . . . .   
  
 
  Subriff 
e|---------------------| 
b|---------------------| 
g|---------------------| 
D|--3~---5~---7~--8~---| 
A|--3~---5~---7~--8~---| 
E|--1~---3~---5~--6~---| 
 
 
  Chorus 
e|----------------------------------------------------------------- 
b|----------------------------------------------------------------- 
g|-5-5-5-5-5-5-5-5------------------------------------------------- 
D|-5-5-5-5-5-5-5-5-5-5-5-5-5-5-5-5-7-7-7-7-7-7-7-7-2-2-2-2-2-2-2-2- 
A|-3-3-3-3-3-3-3-3-5-5-5-5-5-5-5-5-7-7-7-7-7-7-7-7-2-2-2-2-2-2-2-2- 
E|-----------------3-3-3-3-3-3-3-3-5-5-5-5-5-5-5-5-0-0-0-0-0-0-0-0- 
 
 -------------------------------------------------------------------------| 
 -------------------------------------------------------------------------| 
 -----------------5-5-5-5-5-5-5-5-7-7-7-7-7-7-7-7-10-10-10-10-10-10-10-10-| 
 -3-3-3-3-3-3-3-3-5-5-5-5-5-5-5-5-7-7-7-7-7-7-7-7-10-10-10-10-10-10-10-10-| 
 -3-3-3-3-3-3-3-3-3-3-3-3-3-3-3-3-5-5-5-5-5-5-5-5--8--8--8--8--8--8--8--8-| 
 -1-1-1-1-1-1-1-1---------------------------------------------------------| 
 
 
  Solo part 
e|-----------------------------------------------------8-----------| 
h|----------------------------------------6-5---8-10-8------------0| 
g|--------------------------------------5-----5----------10-10-10--| 
D|--------------------------------5-7-7----------------------------| 
A|-10-8-7-55-3-5-77-8-7-5-5-5-3------------------------------------| 
E|-----------------------------------------------------------------| 
 
 
  Ending 
e|-------| 
h|-------| 
g|-3-----| 
D|-5-----| 
A|-3-----| 
E|-------| 
 
2x Mainriff 
1x Subriff 
2x Mainriff 
1x Subriff 
1x Chorus 
1x Solo part 
2x Mainriff 
2x Chorus 
1x Ending 
 

Compartilhe esta música: novo

QR Code
Copiar