Lonely Day (Solo )

System Of A Down

eb|----------------------------------------------------------------|  
Bb|------1-----------0------------1------------0-------------------|  
Gb|----2---2-------2---2--------0---0--------1---1-----------------|  
Ab|--2-------0---2-------2----2-------2----0-------0---------------|  
Db|0------------------------3--------------------------------------|  
Eb|------------3-------------------------2-------------------------|  
  
1st Chorus:  
eb|-----------------------------------------------------------------|  
Bb|-----------------------------------------------------------------|  
Gb|-2--2-2-2--------------5--5-5-5----------------------------------|  
Ab|-2--2-2-2---3--3-3-3---5--5-5-5---2--2-2-2-----------------------|  
Db|-0--0-0-0---3--3-3-3---3--3-3-3---2--2-2-2-----------------------|  
Eb|------------1--1-1-1--------------0--0-0-0-----------------------|  
  
RIFF 1:  
eb|----------------------------------------------------------------|  
Bb|------1-----------0------------1------------0-------------------|  
Gb|----2---2-------2---2--------0---0--------1---1-----------------|  
Ab|--2-------0---2-------2----2-------2----0-------0---------------|  
Db|0------------------------3--------------------------------------|  
Eb|------------3-------------------------2-------------------------|  
  
eb|--------------------------------------------|  
Bb|-14---14------------14-14-13----------------|  
Gb|---15----15-15/17---------------------------|  
Ab|--------------------------------------------|  
Db|--------------------------------------------|  
Eb|--------------------------------------------|  

Compartilhe esta música: novo

QR Code
Copiar